Hatebreed - Live For This Chords & Tabs

 

Live For This Chords & Tabs

Hatebreed Chords & Tabs

Version: 1 Type: Tab 0 ratings
1 star 2 stars 3 stars 4 stars 5 stars
comments

Live For This Tab

   
Hatebreed: Live for this
Album: The rise of brutality
Tabbed by: Jason M. (fu_mfkr@yahoo.com)
Tuning: Drop C (C.G.C.F.A.D)
_________________________________________________________________
                       . = Palm Muted           
                       / = Slide                
                       p = Pound
                       * = Let Ring
_________________________________________________________________
-a)
|----------------------------------------------------------------|
|----------------------------------------------------------------|
|----------------------------------------------------------------|
|--------9/5----------------5----------------7-------------------|
|--------7/7----------------3----------------5-------------------|
|-12----------0---0---0----------0---0---0-----------------------|
             ...........        ...........
-b)
|-------------------|
|-------------------|
|-------------------|
|----5555/7777------| 
|----3333/5555------|
|-------------------|
-c)
|----------------------------------------------------------------|
|----------------------------------------------------------------|
|----------------------------------------------------------------|
|--0--2p--0-------------0---2--0---------------------------------|
|--0--2p--0-------------0---2--0---------------------------------|
|--0--2p--0----0--------0---2--0-----0---------------------------|
              ...x8                 ...x8
-d)
|--------------------------------|
|--------------------------------|
|--------------------------------|
|-0*---00---2*---00---3p---00*---|
|-0*---00---2*---00---3p---00*---|
|-0*---00---2*---00---3p---00*---|

|---------------------------|
|---------------------------|
|---------------------------|
|---0*--00---5---00---7-3---|
|---0*--00---5---00---7-3---|
|---0*--00---5---00---7-3---|
_________________________________________________________________
Any Question's Comments or Corecctions are welcome
I am not sure if this is right but it kicks ass
and sounds like it is.
_________________________________________________________________
need a tuner? got a microphone?
http://www.hitsquad.com/smm/programs/AP_Guitar_Tuner/
_________________________________________________________________

[ Tab from: http://www.guitartabs.cc/tabs/h/hatebreed/live_for_this_tab.html ]
Comments