Hatebreed - I Will Be Heard Chords & Tabs

 

I Will Be Heard Chords & Tabs

Hatebreed Chords & Tabs

Version: 3 Type: Tab 0 ratings
1 star 2 stars 3 stars 4 stars 5 stars
comments

I Will Be Heard Tab

Hatebreed
I Will Be Heard
Perseverance
Tabbed by: Robert Walden
Tuning: CGCFAD
palm-mute=*
[ Tab from: http://www.guitartabs.cc/tabs/h/hatebreed/i_will_be_heard_tab_ver_3.html ]
Intro-bass and vocals with guitar feedback
Verses
-19/--------------------------------------------------
------------------------------------------------------
------------------------------------------------------
------------------------------------------------------
-----0--0-3-0-1-0-0----0-3-0-1-0-0----0-3-0-1-0-0-0000
-----0--0-3-0-1-0-0----0-3-0-1-0-0----0-3-0-1-0-0-0000
                                                  ****
Prechorus
----------------------------------------
----------------------------------------
----------------------------------------
----------------------------------------
-4p0h4h6-0-0-0-8-0-0-4p0h4h6-0-0-0-1-0-0
-4p0h4h6-0-0-0-8-0-0-4p0h4h6-0-0-0-1-0-0
         *   *   *           *   *   *
Chorus
---------------------------------------
---------------------------------------
---------------------------------------
---------------------------------------
-000-0000-000-0000-000-0000-1-4-1-5-4-1
-000-0000-000-0000-000-0000-1-4-1-5-4-1
 *** **** *** **** *** ****
Solo-Fill-wah pedal maybe?
-----------------------------------------------
-10-----8-----10----10-10-----11-8-----10----10
-----------------10-----------------------10---
-----------------------------------------------
-----------------------------------------------
-----------------------------------------------
Post-Chorus
------------------------------------
------------------------------------
------------------------------------
------------------------------------
-00000000000-111111111-333333333-666
-00000000000-111111111-333333333-666
 *********** ********* ********* ***

Thats it, just piece it all together. Not too sure what pedal is being used for
the solo fill thing after the chorus, just work with it, i use wah. IM me at
kornfellow91 with comments or leave one in correction box above, more
Perseverance tabs to come...
Comments