Hatebreed - Before Dishonor Chords & Tabs

 

Before Dishonor Chords & Tabs

Hatebreed Chords & Tabs

Version: 4 Type: Tab 0 ratings
1 star 2 stars 3 stars 4 stars 5 stars
comments

Before Dishonor Tab

   
Song: Before Dishonor
Artist: Hatebreed
Album: Satisfaction is the Death of Desire
Transcribed by: BJ Woodward (sk8ing_woody@hotmail.com)

Tuning from Low to High: C G C F A D
PM - Palm Mute

Intro
~~~~~
|------------------|---|
|------------------|---|
|------------------|---|
|--0-0-1-3-4-3-1-3-|-0-|
|--0-0-1-3-4-3-1-3-|-0-|
|--0-0-1-3-4-3-1-3-|-0-|
PM - - - - - - - -

Verse 1
~~~~~~~
First time, Guitar 2 tacet

G |----------------------------|------------------------------|
U |----------------------------|------------------------------|
I |----------------------------|------------------------------|
T |--0--0-0-0-0-0-0-3p0-0-6--6-|-0--0-0-0-0-0-0-10p0-0-13--12-|
A |--0--0-0-0-0-0-0-3p0-0-6--6-|-0--0-0-0-0-0-0-10p0-0-13--12-|
R |--0--0-0-0-0-0-0-3p0-0-6--6-|-0--0-0-0-0-0-0-10p0-0-13--12-|
1 PM    - - - - - -   - -           - - - - - -    - -

G
U |-----------------------------------------------------------|
I |-----------------------------------------------------------|
T |--7--------------5------------7--------------8-------------|
A |-----------------------------------------------------------|
R |--5--------------3------------5--------------6-------------|
  |-----------------------------------------------------------|
2

G |----------------------------|------------------------------|
U |----------------------------|------------------------------|
I |----------------------------|------------------------------|
T |--0--0-0-0-0-0-0-3p0-0-6--6-|-0--0-0-0-0-0-0-10p0-0-13--12-|
A |--0--0-0-0-0-0-0-3p0-0-6--6-|-0--0-0-0-0-0-0-10p0-0-13--12-|
R |--0--0-0-0-0-0-0-3p0-0-6--6-|-0--0-0-0-0-0-0-10p0-0-13--12-|
1 PM    - - - - - -   - -           - - - - - -    - -
[ Tab from: http://www.guitartabs.cc/tabs/h/hatebreed/before_dishonor_tab_ver_4.html ]
G
U |-----------------------------------------------------------|
I |-----------------------------------------------------------|
T |--7--------------5------------3--------------5-------------|
A |-----------------------------------------------------------|
R |--5--------------3------------1--------------3-------------|
  |-----------------------------------------------------------|
2

Chorus
~~~~~~
|------------------------------------------------------|
|------------------------------------------------------|
|------------------------------------------------------|
|--0--0--1--0--0--1--0--0--1--0--0--1--0-0-1-3-4-3-1-3-|
|--0--0--1--0--0--1--0--0--1--0--0--1--0-0-1-3-4-3-1-3-|
|--0--0--1--0--0--1--0--0--1--0--0--1--0-0-1-3-4-3-1-3-|
PM -  -     -  -     -  -     -  -     - - - - - - - -

|--------------------------------------|
|--------------------------------------|
|-----------5----8-------------5----10-|
|--0--------5----8----0--------5----10-|
|--0--------3----6----0--------3-----8-|
|--0------------------0----------------|

Verse 2
~~~~~~~
|-------------------------------|-----------------|
|-------------------------------|-----------------|
|------------------7/8-7--7/8-5-|-----------------|
|--0-0-0---0-0-0---7/8-7--7/8-5-|-0-0-1-3-4-3-1-3-|
|--0-0-0---0-0-0---5/6-5--5/6-3-|-0-0-1-3-4-3-1-3-|
|--0-0-0---0-0-0----------------|-0-0-1-3-4-3-1-3-|
PM - -     - -                    - - - - - - - -

Outro
~~~~~
|-------------------------|---------------------------------|
|-------------------------|---------------------------------|
|-------------------------|---------------------------------|
|--0--0--1--3--4--3--1--3-|-0-0-0-0-1-1-3-3-4-4-3-3-1-1-3-3-|
|--0--0--1--3--4--3--1--3-|-0-0-0-0-1-1-3-3-4-4-3-3-1-1-3-3-|
|--0--0--1--3--4--3--1--3-|-0-0-0-0-1-1-3-3-4-4-3-3-1-1-3-3-|
PM -  -  -  -  -  -  -  -   - - - - - - - - - - - - - - - -
Comments