Hatebreed - Before Dishonor Chords & Tabs

 

Before Dishonor Chords & Tabs

Hatebreed Chords & Tabs

Version: 1 Type: Tab 0 ratings
1 star 2 stars 3 stars 4 stars 5 stars
comments

Before Dishonor Tab

Before Dishonor
By: Hatebreed
Album: Satisfaction is the Death of Desire
Transcribed by: Mike Bower
Riff 1
|---------------------------------------------------------------|
|---------------------------------------------------------------|
|---------------------------------------------------------------|
|---------------------------------------------------------------|
|-----3-4-5----3-4-5----3-4-5----3-4-5---2------(2)-------------|
|---0-1-2-3--0-1-2-3--0-1-2-3--0-1-2-3---0------(0)-------------|
    pm--------------------------------| 
Riff 2 (8x)
|---------------------------------------------------------------|
|---------------------------------------------------------------|
|---------------------------------------------------------------|
|---------------------------------------------------------------|
|---2--2-2-2-2-2-2--4-------5------6----------------------------|
|---0--0-0-0-0-0-0--2--0-0--3-0-0--4----------------------------|
       pm---------|    pm-|   pm-|
Riff 3 (4x)
|---------------------------------------------------------------|
|---------------------------------------------------------------|
|---------------------------------------------------------------|
|---------------------------------------------------------------|
|---2--2--4--2--2--4--2--2--4--2--2--4--------------------------|
|---0--0--2--0--0--2--0--0--2--0--0--2--0-1-2-3-0-3-2-1---------|
    pm--|    pm--|    pm--|    pm--|    pm-------------|
Riff 4 (2x)
|---------|-----------------------------------------------------|
|---------|-----------------------------------------------------|
|---------|-----------------------------------------------------|
|---------|-----------------------------------------------------|
|---2-----|---11-11-11-11-12-12-12-12---2-----------------------|
|---0-----|---9--9--9--9--10-10-10-10---0-----------------------|
Riff 5 (7x)
|---------------------------------------------------------------|
|---------------------------------------------------------------|
|---------------------------------------------------------------|
|---------------------------------------------------------------|
|-----4-4----4-4----4/9--9\7--7\5-------------------------------|
|---0-2-2--0-2-2--0-2/7--7\5--5\3-------------------------------|
    *      *      *
Play this 8th time
|---------------------------------------------------------------|
|---------------------------------------------------------------|
|---------------------------------------------------------------|
|---------------------------------------------------------------|
|-----4-4----4-4------------------------------------------------|
|---0-2-2--0-2-2--0-1-2-3-0-3-2-1-------------------------------|
    *      *      pm-------------|
Riff 6
|--------------------------------------|---------0--------------|
|--------------------------------------|---------0--------------|
|--------------------------------------|---------2--------------|
|--------------------------------------|---------0--------------|
|---2--2-2-2-2-2-2--3/2---4/5---5/6----|--2------2--------------|
|---0--0-0-0-0-0-0--1/2-0-2/3-0-3/4----|--0------0--------------|
       pm---------|     *     *
Riff 7 (6x)
|---------------------------------------------------------------|
|---------------------------------------------------------------|
|---------------------------------------------------------------|
|---------------------------------------------------------------|
|---------------------------------------------------------------|
|---0-1-2-3--0-1-2-3--0-1-2-3--0-1-2-3--------------------------|
    pm--------------------------------|
Riff 8 (7x)
|---------------------------------------------------------------|
|---------------------------------------------------------------|
|---------------------------------------------------------------|
|---------------------------------------------------------------|
|---------------------------------------------------------------|
|---0000-1111-2222-3333---0000-1111-2222-3333-------------------|
    pm---------------------------------------|
Ending
|---------------------------------------------------------------|
|---------------------------------------------------------------|
|---------------------------------------------------------------|
|---------------------------------------------------------------|
|-----3-4-5---3-4-5-2-------------------------------------------|
|---0-1-2-3-0-1-2-3-0-------------------------------------------|
    pm-------------|

[ Tab from: http://www.guitartabs.cc/tabs/h/hatebreed/before_dishonor_tab.html ]
Comments