Hatebreed - Another Day Another Vendetta Chords & Tabs

 

Another Day Another Vendetta Chords & Tabs

Hatebreed Chords & Tabs

Version: 1 Type: Tab 0 ratings
1 star 2 stars 3 stars 4 stars 5 stars
comments

Another Day Another Vendetta Tab

Hatebreed - Another Day, Another Vendetta

Tuning: drop C /(TONE Regler = 6)

* = pm
> < = pick slide


Main Riff

C------------------------------------------------------|
G------------------------------------------------------|
E------------------------------------------------------|
B-0-00-0-00-8-000000000-0-00-8-00-11-11----------------|
F-0-00-0-00-8-000000000-0-00-8-00-11-11----------------| 2x - continue 2 more times while next part
C-0-00-0-00-8-000000000-0-00-8-00-11-11----------------|
    **   **   *********   **   **

Guitar2
C-----------------------------------------------------|
G-----------------------------------------------------|
E-----------------------------------------------------|
B-----------------------------------------------------|
F---------------------5555555555-656565-11-000--------| 2x
C-5>>>>>>> pick slide---------------------------------|

C-----------------------------------------------------|
G-----------------------------------------------------|
E-----------------------------------------------------|
B-0-00-0-00-8-000000000-0-00-8-00-11-11---------------|
F-0-00-0-00-8-000000000-0-00-8-00-11-11---------------| 4x
C-0-00-0-00-8-000000000-0-00-8-00-11-11---------------|
    **   **   *********   **   **

C---------------------|
G---------------------|
E---------------------|
B-0-3-7-00-6-0000000--| 4x
F-0-3-7-00-6-0000000--|
C-0-3-7-00-6-0000000--|
        **   *******

C------------------------------------------------------|
G------------------------------------------------------|
E------------------------------------------------------|
B-0-00-0-00-8-000000000-0-00-8-00-11-11----------------| 2x - continue 2 more times while next part
F-0-00-0-00-8-000000000-0-00-8-00-11-11----------------|
C-0-00-0-00-8-000000000-0-00-8-00-11-11----------------|
    **   **   *********   **   **
[ Tab from: http://www.guitartabs.cc/tabs/h/hatebreed/another_day_another_vendetta_tab.html ]
Guitar2
C-----------------------------------------------------|
G-----------------------------------------------------|
E-----------------------------------------------------|
B-----------------------------------------------------|
F---------------------5555555555-656565-11-000--------| 2x
C-5>>>>>>> pick slide---------------------------------|

C---------------------|          C-----------------------|
G---------------------|          G-----------------------|
E---------------------|          E-----------------------|
B-0-3-7-00-6-0000000--|          B--7777-888-------------|
F-0-3-7-00-6-0000000--| 8x then  F--7777-888-------------|
C-0-3-7-00-6-0000000--|          C--7777-888-------------|
        **   *******
C-----------------------------------------------------|
G-----------------------------------------------------|
E-----------------------------------------------------|
B-0-0-3-000-3-7-6-000-0-0-3-000-3-7-6-3---------------|
F-0-0-3-000-3-7-6-000-0-0-3-000-3-7-6-3---------------| 8x
C-0-0-3-000-3-7-6-000-0-0-3-000-3-7-6-3---------------|
    *   ***       ***   *   ***

C------------------------------------------------------|
G------------------------------------------------------|
E------------------------------------------------------|
B-0-00-0-00-8-000000000-0-00-8-00-11-11----------------| 2x - continue 2 more times while next part
F-0-00-0-00-8-000000000-0-00-8-00-11-11----------------|
C-0-00-0-00-8-000000000-0-00-8-00-11-11----------------|
    **   **   *********   **   **

Guitar2
C-----------------------------------------------------|
G-----------------------------------------------------|
E-----------------------------------------------------|
B-----------------------------------------------------|
F---------------------5555555555-656565-11-000--------| 2x
C-5>>>>>>> pick slide---------------------------------|

C---------------------|          C--------------|
G---------------------|          G--------------|
E---------------------|          E--------------|
B-0-3-7-00-6-0000000--|          B--7777-888-0--|
F-0-3-7-00-6-0000000--| 8x then  F--7777-888-0--|
C-0-3-7-00-6-0000000--|          C--7777-888-0--|
        **   *******


** ASS kicking song!!! Hope it's correct, well for me it sounds like so, enjoy it. :) *
Comments