Hatebreed - Afflicted Past Chords & Tabs

 

Afflicted Past Chords & Tabs

Hatebreed Chords & Tabs

Version: 1 Type: Tab 0 ratings
1 star 2 stars 3 stars 4 stars 5 stars
comments

Afflicted Past Tab

Hatebreed-afflicted past

HATEBREED RULES!!!

                                         "Hatred evokes the memories..."
1||-----------------|------------------||-----------------|------------------||
2||-----------------|------------------||-----------------|------------------||
3||-----------------|------------------||-----------------|------------------||
4||-----------------|-5-------------7--||-----------------|-5-------------7--||
5||-2---------------|-3-------7--8--5--||---2-------2-----|-3-------7--8--5--||
6||-0---------------|---------5--6-----||-0-0---0-0-0---0-|---------5--6-----||
[ Tab from: http://www.guitartabs.cc/tabs/h/hatebreed/afflicted_past_tab.html ]
   "How can you face the world..."
1||-----------------|-----------------|------------------|------------------||
2||-----------------|-----------------|------------------|------------------||
3||-----------------|-----------------|------------------|------------------||
4||-----------------|-----------------|-4\3--------------|------------------||
5||---3-------3-----|---3-------3-----|-2\1--------------|-6\5--------------||
6||-1-1---1-1-1---1-|-1-1---1-1-1---1-|------------------|-4\3--------------||

   "No escape..."
1||-----------------|-----------------|-----------------|-----------------||
2||-----------------|-----------------|-----------------|-----------------||
3||-----------------|-----------------|-----------------|-----------------||
4||-----------------|-----------------|-----------------|-----------------||
5||-5-6-8---2---2---|-2---3-2-2---2---|-2---2---2---2---|-2---3-2-2---2---||
6||-3-4-6---0---0---|-0---1-0-0---0---|-0---0---0---0---|-0---1-0-0---0---||
Comments