Hatebreed - A Call For Blood Chords & Tabs

 

A Call For Blood Chords & Tabs

Hatebreed Chords & Tabs

Version: 1 Type: Bass Tab

A Call For Blood Bass Tab

Song: A Call For Blood
Album: Perserverance
Band: Hatebreed
Tabbed By: Masterbasser36


Intro
F|-----------------------------------|
C|-----------------------------------|
G|---------------5-4-5-8-------------|
C|-4-3-4-6-0-----------------4-3-4-6-|


Verse
F|------------------------------------------------|
C|------------------------------------------------|
G|-----------------5-4-1------------------5-4-5-8-|
C|-0-0-0-0-0-0-0-0--------0-0-0-0-0-0-0-0---------|

F|-------------------------------------------------|
C|-------------------------------------------------|
G|-----------------5-4-1---------------------------|
C|-0-0-0-0-0-0-0-0-------0-0-0-0-0-0-0-0---4-3-4-6-|

[ Tab from: http://www.guitartabs.cc/tabs/h/hatebreed/a_call_for_blood_btab.html ]
Chorus
F|--------------------------------------------------------------------|
C|--------------------------------------------------------------------|
G|--------------------------5-4-5-8-----------------------------------|
C|-0-0-0-0--7-6-3---0-0-0-0---------0-0-0-0--7-6-3---0-0-0-0--4-3-4-6-|

F|-------------------------|
C|-------------------------|
G|-------------------------|
C|-0-0-0---0-0-0---0-0-0---|

F|---------------------------------------------------------------|
C|---------------------------------------------------------------|
G|---------------------------------------------------------------|
C|-0-0-0-0-0-0-0-0-0-0---0-0-0-3-1-0---0-0-0-3-5-1---0-0-0-3-1-0-|


Bridge
F|----------------||---------|
C|----------------||---------|
G|----------------||---------|
C|-0-4-3-4-6-0~---||-5-6-3-1-|


Outro
F|------------------------------------------------|
C|------------------------------------------------|
G|------------------------------------------------|
C|-3-1-0~---3-1-0~---3-1-0~---3-1---5-6-3-1---0---|

RATE!
And Please Comment If You Find Any Mistakes!