Haste The Day - Closest Thing To Closure Chords & Tabs

 

Closest Thing To Closure Chords & Tabs

Haste The Day Chords & Tabs

Version: 1 Type: Tab 0 ratings
1 star 2 stars 3 stars 4 stars 5 stars
comments

Closest Thing To Closure Tab

   
Artist: Haste the Day
Song: The Closest Thing to Closure
Album: Burning Bridges
Tabber: theguitarmanX
Tuning: Drop C (C G C F A D)

Intro
D|----|
A|----|
F|-15-|
C|--x-|<---strum alot
G|-13-|
C|----|

Verse x2
D|---------------------------------------------------------------|
A|---------------------------------------------------------------|
F|---------------------------------------------------------------|
C|---------------------------------------------------------------|
G|---7---7h8p7-5---7---7h8----7---7h8p7-5-10-10-10-10-10-8---7h8-|
C|-0---0---------0---0-----00---0--------------------------0-----|
PM .   .         .   .     ..   .                          .

Intro
Verse x2

Bridge 1 x8                 1.______________________  2.____________
D|-------------------------|-------------------------|---------------|
A|-------------------------|-------------------------|---------------|
F|-------------------------|-------------------------|-2-------------|
C|-------2h3p2-------2h3p2-|-0-0-0-2h3p2-0-0-0-2h3p2-|-2-222-222-222-|
G|-1-1-1-------3-3-3-------|-------------------------|-0-000-000-000-|
C|-------------------------|-------------------------|---------------|
PM                                                       ... ... ...

Verse 2a           this chord is right
D|-----------------------v-------------------------------------------------|
A|-----------------------v-------------------------------------------------|
F|-----------------------v-------------------------------------------------|
C|-7-7-7-7-7-7-2h3-3-3-3-3-3-3-2h3-3-3-3-3-9-9-9-9-9/10-7-7-7-7-7-7--3p2---|
G|-5-5-5-5-5-5-----3-3-3-3-3-3-----1-1-1-1-7-7-7-7-7/8--5-5-5-5-5-5------3-|
C|-------------------------------------------------------------------------|
[ Tab from: http://www.guitartabs.cc/tabs/h/haste_the_day/closest_thing_to_closure_tab.html ]
Verse 2b
D|-------------------------------------------------------------------------|
A|-------------------------------------------------------------------------|
F|-------------------------------------------------------------------------|
C|-7-7-7-7-7-7-2h3-3-3-3-3-3-3-2h3-3-3-3-3-2-2-2-2-9/10-7-7-7-7-7-7--3p2---|
G|-5-5-5-5-5-5-----3-3-3-3-3-3-----1-1-1-1-0-0-0-0-7/8--5-5-5-5-5-5------3-|
C|-------------------------------------------------------------------------|
PM . . . . . .     . . . . . .     . . . .   . . .      

Solo
Guitar 1 and 2 play this for one time then Guitar 1 plays solo riff
D|------------------------------------------------|
A|------------------------------------------------|
F|-777777-----333333-----555555-----333333--------|
C|-777777-3p2-333333-2h3-555555-3p2-333333--3p2---|
G|-555555-----111111-----333333-----111111------3-|
C|------------------------------------------------|

Guitar 2
D|--------------------------------------------------|
A|-6-5-----5h6p5-8-6-5---5h6p5-8-6-5---5h6p5-8-6-5--|
F|-----5-7-------------7-------------3--------------|
C|--------------------------------------------------|
G|--------------------------------------------------|
C|--------------------------------------------------|

D|---------------------------------------------|
A|---5h6p5-8-6-5----5h6p5-8-6-5----5h6p5-8-6-5-|
F|-3--------------5--------------5-------------|
C|---------------------------------------------|
G|---------------------------------------------|
C|---------------------------------------------|

D|----------------5-----------------------------------|
A|---5h6p5-8-6-5----8-5-6-5-----5h6p5-8-6-5--666-555--|
F|-3------------------------5-7-----------------------|
C|----------------------------------------------------|
G|----------------------------------------------------|
C|----------------------------------------------------|

D|---------------555----------------------------|
A|---5h6p5-8-6-5-----888---5h6p5-8-6-5--666-555-|
F|-3---------------------5----------------------|
C|----------------------------------------------|
G|----------------------------------------------|
C|----------------------------------------------|

D|---------------555-----|
A|---5h6p5-8-6-5-----888-|
F|-3---------------------|
C|-----------------------|
G|-----------------------|
C|-----------------------|

Outro (repeat as needed)
D|--------------------|
A|--------------------|
F|--------------------|
C|--------------------|
G|-000-0000--000-0000-|
C|-000-0000--000-0000-|
PM ... ....  ... ....

Enjoy. Please rate!
Comments