Harvey Danger - Authenticity Chords & Tabs

 

Authenticity Chords & Tabs

Harvey Danger Chords & Tabs

Version: 1 Type: Bass Tab 0 ratings
1 star 2 stars 3 stars 4 stars 5 stars
comments

Authenticity Bass Tab

   
Artist: Harvey Danger
Song: Authenticity
Album: King James Version

Intro:
G-------------------|
D-------------------|
A-22-22222-55-------| 4x
E-------------5-555-|

Verse:
G-------------------|
D-------------------|
A-22222222-55-------| 4x
E-------------5-555-|
[ Tab from: http://www.guitartabs.cc/tabs/h/harvey_danger/authenticity_btab.html ]
Chorus:
G-------------------|
D-------------------|
A-2222-2222-55-7-777| 4x
E-------------------|

Bridge:
G-------------------|    G-------------------|
D-------------------|    D-------------------|
A-22222222-55-------| 4x A-22222222-5555-7777| 4x
E-------------5-555-|    E-------------------|
Comments