Harper Ben - Waiting On An Angel Chords & Tabs

 

Waiting On An Angel Chords & Tabs

Harper Ben Chords & Tabs

Version: 1 Type: Tab 1 rating
1 star 2 stars 3 stars 4 stars 5 stars
comments

Waiting On An Angel Tab

#----------------------------------PLEASE NOTE---------------------------------#
#This file is the author's own work and represents their interpretation of the #
#song. You may only use this file for private study, scholarship, or research. #
#------------------------------------------------------------------------------#

ARTIST: Ben Harper
SONG: Waiting On An Angel
TABBED BY: Moses Brown             browneye_023@yahoo.com.au


Ok the version of this on the album is tuned down a whole step, 
but if you can't be bothered it still sounds heaps good with 
standard tuning. Actually the Hollywood Bowl concert he just 
plays it with normal tuning, and it sounds great. The chords 
used in this song are basic but the hard part is the pattern 
he uses which is kinda complicated, but if you follow the 
instructions you should be sweet. Enjoy!


p = pull off
h = hammer on


Intro / Verse  (Part 1)

d--------------------------------------------------------|
A------1--1-------1--1---------1--1p0-------0--0h1-------|
F------0--0-------0--0---------0--0---------0--0---------|
C--------------------------------------------------------|
G---3---------2-----------0------------------------------|
D---------------------------------------3----------------|
    
    
Play Part 1 three times for VERSE then there's a slight change:


Part 2

d---------------------------------------------------------------------------|
A------1--1-------0--0h1------1--1-------0--0--------1--1-------0--0h1------|
F------2--2-------0--0--------0--0-------0--0--------2--2-------0--0--------| then back 
C---------------------------------------------------------------------------| to Part 1
G-------------------------0-------------------------------------------------|
D---1---------3----------------------3-----------1----------3---------------|



NOTE: When it goes "fly with thee" play first half of Part 1 before Chorus


CHORUS 

d------------------------------------------------------------------------------------------------
A------1--1-------0--0h1------1--1-------0--0-------1--1-------0--0h1-------1--1-------1--1------
F------2--2-------0--0--------0--0-------0--0-------2--2-------0--0---------0--0-------0--0------
C------------------------------------------------------------------------------------------------
G-------------------------0---------------------------------------------3-----------2------------
D---1----------3---------------------3----------1----------3-------------------------------------
   

[ Tab from: http://www.guitartabs.cc/tabs/h/harper_ben/waiting_on_an_angel_tab.html ]
---------------------------------------------------------------------------------------------------------------------------|
---------1--1-------0--0h1------1--1-------0--0-------1--1-------0--0h1--------1--1--------1--1-------1--1-------0--0h1----|
---------2--2-------0--0--------0--0-------0--0-------2--2-------0--0----------0--0--------0--0-------2--2-------0--0------|
---------------------------------------------------------------------------------------------------------------------------|
----------------------------0---------------------------------------------3-----------2------------------------------------|
-----1----------3----------------------3----------1----------3------------------------------------1-----------3------------|


*****************************************************************************************************************


Ben Harper - Waiting On An Angel


I have seen this song many times and it is always done wrong.  I 
saw Ben play it in concert and this is the format he used.  The 
chorus is a little iffy so if you have any corrections feel free to
email me.  Have fun.

 Capo on 1st fret
|----------------------------------------------||
|---------3--3-----3--3-----3--3-------3--3----||
|---------3--3-----3--3-----3--3p2-----2--2h3--|| verse 
|----------------------------------------------||
|------1--------0------------------------------||
|------------------------3----------1----------||
 (repeat twice before singing)
     Waiting       on an angel
     One   to carry   me home
     Wont you come   to see me soon

|----------------------------------------------||
|--------3--3-------3--3---------3--3-----3--3-||
|--------3--3p2-----2--2h3-------3--3-----3--3-|| 
|---------------------------0------------------||
|-----1----------3---------------------3-------||
|----------------------------------------------||
      Cause   I   dont   want to  go   alone


|----------------------------------------------||
|--------3--3-------3--3---------3--3----------||
|--------3--3p2-----2--2h3-------3--3----------|| 
|----------------------------------------------||
|-----1----------3-----------1-----------------||
|----------------------------------------------||    
     I  dont want to go alone  (repeat verse tab)

|----------------------------------------------||
|--------3--3-------3--3---------3--3-----3--3-||
|--------3--3p2-----2--2h3-------3--3-----3--3-|| chorus
|----------------------------------------------||
|----------------0----------1------------------||
|-----3--------------------------------1-------||







Comments