Harper Ben - Sexual Healing Chords & Tabs

 

Sexual Healing Chords & Tabs

Harper Ben Chords & Tabs

Version: 1 Type: Tab 1 rating
1 star 2 stars 3 stars 4 stars 5 stars
comments

Sexual Healing Tab

   
11.01.01
JEROME DID A GREAT JOB BUT HERE ARE SOME REVISIONS (FULLER SOUND AND CORRECTIONS) TO HIS TAB BELOW:
REMEMBER TO DROP FULL STEP TO D (CHORD SHAPES BELOW ARE STANDARD TUNING SHAPES APPLIED TO "D" TUNING)
Chorus :
      D                      C           C                      Amaj9             F
e] ---3----0----0------------------------0--0-------------------0--0--------------0------]
B] ---3----3----3------------------------1--1-------------------0--0--------------1------]
G] ---2----0----0------0-----------------0--0-------------------1--1--------------2------]
D] ---0----2----3------5-----------------2--2------0-h-2--------2--2--------------3------]
A] --------------------------3----3------3--3-------------------------------------0------]
E] --------------------------------------0--0--------------------------------------------]


Tabbed by Jerome Desfeux (defff@caramail.com)

This is an easy song, just get the rythm !
E-mail for any questions.

h: hammer-on
p: pulling-off


Intro +  Verse :
[ Tab from: http://www.guitartabs.cc/tabs/h/harper_ben/sexual_healing_tab.html ]
       G                         Am            F                                    C
e] -------------------------------0--0--0-------------------------------------------------------------------------]
B] -------------------------------1--1--1-------------------------------------------------------------------------]
G]--------------------------------2--2--2-------------------------------------------------------------------------]
D] ----------0--0--0--------------2--2--2-------------------0--0--0----------------------0-h-2-p-0----------0-----]
A] ----------2--2--2------0---------------------------------0--0--0--------3------0-h-3----------------3----------]
E] ----3-----3--3--3---------------------------0---1---1----1--1--1-----------------------------------------------]


Chorus :
                               C                               E                  Am
e] --------------------------------------0--0-------------------0--0--------------0------]
B] --------------------------------------1--1-------------------0--0--------------1------]
G] --------------------0-----------------0--0-------------------2--2--------------2------]
D] ---0----2----3------------------------2--2------0-h-2--------2--2--------------2------]
A] --------------------------3----3------3--3-------------------1--1--------------0------]
E] --------------------------------------0--0-------------------0--0---------------------]

Comments