Harper Ben - Sexual Healing Chords & Tabs

 

Sexual Healing Chords & Tabs

Harper Ben Chords & Tabs

Version: 1 Type: Bass Tab 0 ratings
1 star 2 stars 3 stars 4 stars 5 stars
comments

Sexual Healing Bass Tab

   

listen to song to get the timing and the right structure
but here it is in a nut shell



 follow same progression as guitar
[ Tab from: http://www.guitartabs.cc/tabs/h/harper_ben/sexual_healing_btab.html ]
for the verses play
   G   A   F   C   fill
g\-------\-------\--------
d\-------\-------\---2----
a\-------\------3\3-5--5-3
e\--3---5\--1----\--------

leds into chorus

g\-------\--------\
d\-------\--2-3-4x\
a\-------\5-------\
e\-3--5--\--------\

chorus

g\--------\--------\------\--------\
d\--------\--------\------\--2-3-4x\
a\3--333-x\--------\------\5-------\
e\--------\0--000-0\1--111\--------\
Comments