Harper Ben - Pleasure And Pain Chords & Tabs

 

Pleasure And Pain Chords & Tabs

Harper Ben Chords & Tabs

Version: 2 Type: Tab 0 ratings
1 star 2 stars 3 stars 4 stars 5 stars
comments

Pleasure And Pain Tab

----------------------------------PLEASE NOTE--------------------------------#
#This file is the author's own work and represents their interpretation of the#
#song. You may only use this file for private study, scholarship, or research.#
#-----------------------------------------------------------------------------#


From: SuperGold@webtv.net
Date: Fri, 19 Jun 1998 16:45:49 -0700
Subject: h/harper_ben/pleasure_and_pain.tab

          PLEASURE AND PAIN
                          by
                 BEN HARPER
                         off
         WELCOME TO THE CRUEL WORLD

His Weissenborn sounds much better on this song, but any accoustic
guitar will sound good.

Verse and solo:
|--------------------------------------------------------------|
|-------3~~~~7--7~~~~3--0--5--3--2----3-----------|
|----2--------------------------------------------------0--2-|
|-0--------------------------------------------0----0--------|
|--------------------------------------------------------------|
|--------------------------------------------------------------|

|------------------------------|
|-------3---------------------|
|----2--------0--2-----------|
|-0--------0--------0--------|
|------------------------------|
|------------------------------|

[ Tab from: http://www.guitartabs.cc/tabs/h/harper_ben/pleasure_and_pain_tab_ver_2.html ]
Chorus:
|-------------------------------------------------------------|
|-7~~~~3--3-----7~~~~3--5-----7~~~~3--3-------|
|------------------------------------0------------------------|
|-------------------0-----------------------------------0----|
|-------------------------------------------------------------|
|-------------------------------------------------------------|

|-------------------------------------------------------------|
|--3~~~5--7~~~3--3--7~~~~3--5--3--5~~~~7---|
|-------------------------------------------------------------|
|-------------------------------------------------------------|
|-------------------------------------------------------------|
|-------------------------------------------------------------|

|-------------------|
|-3--5--3--2--3--|
|-------------------|
|-------------------|
|-------------------|
|-------------------|

This is a really good song
kevin honda

*******************************************************************************************************


PLEASE BLEED
by Ben Harper

from the live album "Live on Mars" (2001)
tabbed by Andrea Baroni (baroni_andrea@hotmail.com)

Standard tuning

Intro and verses:
E----------------------I------------------
B----------------------I------------------
G----------------------I------------------
D----2----0-------0----I-----------2-4-2--
A-------------------4--I--0-4-3--3--------
E--0----------3--------I---------3--------

Pre-chorus:
E----------------------I-------------------
B----------------------I-------------------
G----------------------I-------------------
D----2----0-------0----I-------------------
A-------------------4--I--0----------------
E--0----------3--------I-------------------

Chorus (strummed)

Comments