Harper Ben - Please Bleed Chords & Tabs

 

Please Bleed Chords & Tabs

Harper Ben Chords & Tabs

Version: 1 Type: Tab 1 rating
1 star 2 stars 3 stars 4 stars 5 stars
comments

Please Bleed Tab

Please Bleed
by Ben Harper

Submitted by Mike 12/12/00

Tune down a step
[ Tab from: http://www.guitartabs.cc/tabs/h/harper_ben/please_bleed_tab.html ]
Verse
|--------------------------|--------------------------|
|--------------------------|--------------------------|
|--------------------------|-------------------------.|  9 times
|-----2--0--------0--------|----------------2-2^4^2--.|
|--------------------4-----|--0--4--3----3------------|
|--0----------3------------|-------------3------------|

Pre-Chorus
|--------------------------|--------------------------|
|--------------------------|--------------------------|
|--------------------------|--------------------------|
|-----2--0---------0-------|--------------------------|
|---------------------4----|--0-----------------------|
|--0-----------3-----------|--------------------------|

That's all I can do because I can't strum for shit.
Comments