Harper Ben - Oppression Chords & Tabs

 

Oppression Chords & Tabs

Harper Ben Chords & Tabs

Version: 1 Type: Tab 0 ratings
1 star 2 stars 3 stars 4 stars 5 stars
comments

Oppression Tab

   
#----------------------------------PLEASE NOTE---------------------------------#
#This file is the author's own work and represents their interpretation of the #
#song. You may only use this file for private study, scholarship, or research. #
#------------------------------------------------------------------------------#
#

Date: Thu, 20 Nov 1997 16:23:59 PST
From: ian lindsay 
To: guitar@olga.net
Subject: Tab change Ben Harper

Oppression  by Ben Harper

>From the album Fight For Your Mind
Ben plays it on a Martin 00-18,and it's
all finger picked.Notice that the guitar
is tune a step lower than standard.
Transcription I. Lindsay


D|-----------------------------------------|
A|---0-h-1----1-------0--------0-----1-----|
F|---0-h-2----2-------0--------0-----2-----|
C|---0-h-2----2---0-------0----------2-----|
G|-----------------------------------------|
D|-----------------------------------------|


D-----------------------------------------|
A---0-h-1----1-------0--------0-----1-----|
F---0-h-2----2-------0--------0-----2-----|
C---0-h-2----2---0-------0----------2-----|
G-----------------------------------------|
D-----------------------------------------|


D-----------------------------------------|
A--0-h-1----1-------0--------0-----1------|
F--0-h-2----2-------0--------0-----2------|
C--0-h-2----2---0-------0----------2------|
G-----------------------------------------|
D-----------------------------------------|
oppression         you    prey    on     us 



D-----------------------------------------|
A--1----1-----------1-----0----0----------|
F--0----0-----------0-----0----0----------|
C--2----2-----------2---------------------|
G--3----3-------3-------------------------|
D-------------------------3----3----------|
    when    we     sleep


D-----------------------------------------|
A--0-h-1----1-------0--------0-----1------|
F--0-h-2----2-------0--------0-----2------|
C--0-h-2----2---0-------0----------2------|
G-----------------------------------------|
D-----------------------------------------|
      oppression   you   chase   after 



D-----------------------------------------|
A--1----1-----------1-----0----0----------|
F--0----0-----------0-----0----0----------|
C--2----2-----------2---------------------|
G--3----3-------3-------------------------|
D-------------------------3----3----------|
    the   tired the   poor the    weak



D-----------------------------------------|
A--0-h-1----1-------0--------0-----1------|
F--0-h-2----2-------0--------0-----2------|
C--0-h-2----2---0-------0----------2------|
G-----------------------------------------|
D-----------------------------------------|
     oppression     you     know 



D-----------------------------------------|
A--1----1-----------1-----0----0----------|
F--0----0-----------0-----0----0----------|
C--2----2-----------2---------------------|
G--3----3-------3-------------------------|
D-------------------------3----3----------|
    you   mean   only   harm



D-----------------------------------------|
A--0-h-1----1-------0--------0-----1------|
F--0-h-2----2-------0--------0-----2------|
C--0-h-2----2---0-------0----------2------|
G-----------------------------------------|
D-----------------------------------------|
   oppression   you   reach   out



D-----------------------------------------|
A--1----1-----------1-----0----0----------|
F--0----0-----------0-----0----0----------|
C--2----2-----------2---------------------|
G--3----3-------3-------------------------|
D-------------------------3----3----------|
       with   your   long   arm



D-----------------------------------------|
A--0-h-1----1-------0--------0-----1------|
F--0-h-2----2-------0--------0-----2------|
C--0-h-2----2---0-------0----------2------|
G-----------------------------------------|
D-----------------------------------------|
      but  oppression  I   won't   let 
 


D-------------------------0---------------|
A--3----3-----------3------------0--------|
F--2----2-----------2------------0--------|
C--0----0-------0-------------------------|
G-----------------------------------------|
D-------------------------0------3--------|
      you   near       me_______



D-----------------------------------------|
A--0-h-1----1-------0--------0-----1------|
F--0-h-2----2-------0--------0-----2------|
C--0-h-2----2---0-------0----------2------|
G-----------------------------------------|
D-----------------------------------------|
     oppression  you   shall   learn 



D-----------------------------------------|
A--1----1-----------1-----0----0----------|
F--0----0-----------0-----0----0----------|
C--2----2-----------2---------------------|
G--3----3-------3-------------------------|
D-------------------------3----3----------|
       to   fear       me______



D-----------------------------------------|
A--0-h-1----1-------0--------0-----1------|
F--0-h-2----2-------0--------0-----2------|
C--0-h-2----2---0-------0----------2------|
G-----------------------------------------|
D-----------------------------------------|


D-----------------------------------------|
A--1----1-----------1-----0----0----------|
F--0----0-----------0-----0----0----------|
C--2----2-----------2---------------------|
G--3----3-------3-------------------------|
D-------------------------3----3----------|


D-----------------------------------------|
A--0-h-1----1-------0--------0-----1------|
F--0-h-2----2-------0--------0-----2------|
C--0-h-2----2---0-------0----------2------|
G-----------------------------------------|
D-----------------------------------------|


D-----------------------------------------|
A--1----1-----------1-----0----0----------|
F--0----0-----------0-----0----0----------|
C--2----2-----------2---------------------|
G--3----3-------3-------------------------|
D-------------------------3----3----------|


D-----------------------------------------|
A--0-h-1----1-------0--------0-----1------|
F--0-h-2----2-------0--------0-----2------|
C--0-h-2----2---0-------0----------2------|
G-----------------------------------------|
D-----------------------------------------|


D-----------------------------------------|
A--1----1-----------1-----0----0----------|
F--0----0-----------0-----0----0----------|
C--2----2-----------2---------------------|
G--3----3-------3-------------------------|
D-------------------------3----3----------|


D-----------------------------------------|
A--0-h-1----1-------0--------0-----1------|
F--0-h-2----2-------0--------0-----2------|
C--0-h-2----2---0-------0----------2------|
G-----------------------------------------|
D-----------------------------------------|


D-----------------------------------------|
A--1----1-----------1-----0----0----------|
F--0----0-----------0-----0----0----------|
C--2----2-----------2---------------------|
G--3----3-------3-------------------------|
D-------------------------3----3----------|


D-----------------------------------------|
A--0-h-1----1-------0--------0-----1------|
F--0-h-2----2-------0--------0-----2------|
C--0-h-2----2---0-------0----------2------|
G-----------------------------------------|
D-----------------------------------------|


D-------------------------0---------------|
A--3----3-----------3------------0--------|
F--2----2-----------2------------0--------|
C--0----0-------0-------------------------|
G-----------------------------------------|
D-------------------------0------3--------|


D-----------------------------------------|
A--0-h-1----1-------0--------0-----1------|
F--0-h-2----2-------0--------0-----2------|
C--0-h-2----2---0-------0----------2------|
G-----------------------------------------|
D-----------------------------------------|

[ Tab from: http://www.guitartabs.cc/tabs/h/harper_ben/oppression_tab.html ]
D-----------------------------------------|
A--1----1-----------1-----0----0----------|
F--0----0-----------0-----0----0----------|
C--2----2-----------2---------------------|
G--3----3-------3-------------------------|
D-------------------------3----3----------|


D-----------------------------------------|
A--0-h-1----1-------0--------0-----1------|
F--0-h-2----2-------0--------0-----2------|
C--0-h-2----2---0-------0----------2------|
G-----------------------------------------|
D-----------------------------------------|


D-----------------------------------------|
A--1----1-----------1-----0----0----------|
F--0----0-----------0-----0----0----------|
C--2----2-----------2---------------------|
G--3----3-------3-------------------------|
D-------------------------3----3----------|


D-----------------------------------------|
A--0-h-1----1-------0--------0-----1------|
F--0-h-2----2-------0--------0-----2------|
C--0-h-2----2---0-------0----------2------|
G-----------------------------------------|
D-----------------------------------------|


D-----------------------------------------|
A--1----1------------1----0----0----------|
F--0----0----------0------0----0----------|
C--2----2--------2------------------------|
G--3----3------3--------------------------|
D-------------------------3----3----------|
               (Sweep)


D-----------------------------------------|
A--0-h-1----1-------0--------0-----1------|
F--0-h-2----2-------0--------0-----2------|
C--0-h-2----2---0-------0----------2------|
G-----------------------------------------|
D-----------------------------------------|


D-----------------------------------------|
A--1----1-----------1-----0----0----------|
F--0----0-----------0-----0----0----------|
C--2----2-----------2---------------------|
G--3----3-------3-------------------------|
D-------------------------3----3----------|


D-----------------------------------------|
A--0-h-1----1-------0--------0-----1------|
F--0-h-2----2-------0--------0-----2------|
C--0-h-2----2---0-------0----------2------|
G-----------------------------------------|
D-----------------------------------------|


D-----------------------------------------|
A--1----1-----------1-----0----0----------|
F--0----0-----------0-----0----0----------|
C--2----2-----------2---------------------|
G--3----3-------3-------------------------|
D-------------------------3----3----------|


D-----------------------------------------|
A--0-h-1----1-------0--------0-----1------|
F--0-h-2----2-------0--------0-----2------|
C--0-h-2----2---0-------0----------2------|
G-----------------------------------------|
D-----------------------------------------|


D-------------------------0---------------|
A--3----3-----------3------------0--------|
F--2----2-----------2------------0--------|
C--0----0-------0-------------------------|
G-----------------------------------------|
D-------------------------0------3--------|


D-----------------------------------------|
A--0-h-1----1-------0--------0-----1------|
F--0-h-2----2-------0--------0-----2------|
C--0-h-2----2---0-------0----------2------|
G-----------------------------------------|
D-----------------------------------------|


D-----------------------------------------|
A--1----1-----------1-----0----0----------|
F--0----0-----------0-----0----0----------|
C--2----2-----------2---------------------|
G--3----3-------3-------------------------|
D-------------------------3----3----------|


D-----------------------------------------|
A--0-h-1----1-------0--------0-----1------|
F--0-h-2----2-------0--------0-----2------|
C--0-h-2----2---0-------0----------2------|
G-----------------------------------------|
D-----------------------------------------|


D-----------------------------------------|
A--1----1-----------1-----0----0----------|
F--0----0-----------0-----0----0----------|
C--2----2-----------2---------------------|
G--3----3-------3-------------------------|
D-------------------------3----3----------|


D-----------------------------------------|
A--0-h-1----1-------0--------0-----1------|
F--0-h-2----2-------0--------0-----2------|
C--0-h-2----2---0-------0----------2------|
G-----------------------------------------|
D-----------------------------------------|


D-----------------------------------------|
A--1----1------------1----0----0----------|
F--0----0----------0------0----0----------|
C--2----2--------2------------------------|
G--3----3------3--------------------------|
D-------------------------3----3----------|
               (Sweep)


D-----------------------------------------|
A--0-h-1----1-------0--------0-----1------|
F--0-h-2----2-------0--------0-----2------|
C--0-h-2----2---0-------0----------2------|
G-----------------------------------------|
D-----------------------------------------|


D-----------------------------------------|
A--0-h-1----1-------0--------0-----1------|
F--0-h-2----2-------0--------0-----2------|
C--0-h-2----2---0-------0----------2------|
G-----------------------------------------|
D-----------------------------------------|


D-----------------------------------------|
A--0-h-1----1-------0--------0-----1------|
F--0-h-2----2-------0--------0-----2------|
C--0-h-2----2---0-------0----------2------|
G-----------------------------------------|
D-----------------------------------------|


*******************************************************************************************************

Date: Mon, 03 Nov 1997 14:03:34 PST
From: ian lindsay 
Subject: Re: TAB of Oppression by Ben Harper

Oppression  by Ben Harper
Transcription by ian lindsay
>From the album Fight For Your Mind
Ben plays it on a Martin 00-18,and it's
all finger picked.Notice that the guitare
is tune a step lower than standard(but the
parts are named after the shapes used in 
standardex:Am is actualy a Gm)
 Part Am:
D---------------------------------------------------
A--0-h-1----1-------0--------0-----1----------------
F--0-h-2----2-------0--------0-----2----------------
C--0-h-2----2---0-------0----------2----------------
G---------------------------------------------------
D---------------------------------------------------
 Part C:(+ Part C* just sweep the second chord)
             
D---------------------------------------------------
A--1----1-----------1-----0----0--------------------
F--0----0-----------0-----0----0--------------------
C--2----2-----------2-------------------------------
G--3----3-------3-----------------------------------
D-------------------------3----3--------------------
 Part D:
D-------------------------0-------------------------
A--3----3-----------3------------0------------------
F--2----2-----------2------------0------------------
C--0----0-------0-----------------------------------
G---------------------------------------------------
D-------------------------0------3------------------
Part H:
D-----------------------------------------------
A-----------------------------------------------
F-----------------------------------------------
C-----------------------------------------------
G-----------------------------------------------
D-----------------------------------------------


Song structure:

[Am,Am,Am,C] [Am,C,Am,C] [Am,C,Am,D]
[Am,C,Am,C] [Am,C,Am,C] [Am,C,Am,D]
[Am,C,Am,C] [Am,C*,Am,C] [Am,C,Am,D]
[Am,C,Am,C] [Am,C*,Am,Am] [Am,..,..,H]
[..,H,..,H]

Questions at ianlindsay@hotmail.com 
Comments