Harper Ben - Not Fire Not Ice Chords & Tabs

 

Harper Ben Chords & Tabs

Version: 1 Type: Tab 0 ratings
1 star 2 stars 3 stars 4 stars 5 stars
comments

Not Fire Not Ice Tab

   
#----------------------------------PLEASE NOTE---------------------------------#
#This file is the author's own work and represents their interpretation of the #
#song. You may only use this file for private study, scholarship, or research. #
#------------------------------------------------------------------------------#
#

Date: Fri, 12 Dec 1997 15:47:22 +0100 (MET)
From: Briac Pilpre 
Subject: TAB Not Fire, Not Ice by Ben HARPER


Not Fire, Not Ice
-----------------
Ben Harper

Transcribed by: Brendan Hughes 
Many thanks to Briac Pilpre for writing this out. 

>From the Fight For Your Mind B-Sides.
Learn parts A - E and then follow the song pattern
 listed after the TAB.

Tuning : D G C F A D    Time Signature 3/4
Tempo: 96

Intro:
 |   |   |    |   |   |    |   |   |    |   |   |    
|------------|------------|------------|------------|
|----1---1---|------------|----1---1---|------------|
|----0---0---|------------|----0---0---|------------|
|------------|------------|------------|------------|
|3-----------|------------|3-----------|------------|
|------------|1-----------|------------|1-----------|

Part A:
 |   |   |    |   |   |    |   |   |    |   |   |    
|------------|------------|------------|------------|
|----1---1---|----1---1---|----1---1---|----1---1---|
|----0---0---|----2---2---|----0---0---|----0---0---|
|------------|------------|------------|0h2---------|
|3-----------|------------|3-----------|------------|
|------------|1-----------|------------|------------|
 

Part B:
 |   |   |    |   |   |    |   |   |    |   |   |    
|------------|------------|------------|------------|
|----1---1---|----1---1---|----0---1---|----1---1---|
|----0---0---|----2---2---|----0---0---|----2---0---|
|------------|------------|------------|------------|
|3-----------|------------|------------|------------|
|------------|1-----------|3-----------|1-----------|
 

Part C:
    |   |   |    |   |   |    |   |   |    |   |   |    
  |------------|------------|------------|------------|
  |----1---1---|----1---1---|----1-------|----1---1---|
  |----0---0---|----2---2---|----0-------|----2---0---|
  |------------|------------|------------|------------|
  |3-----------|------------|3-----------|2-0---------|
  |------------|1-----------|------------|------------|


Part D:
      |   |   |    |   |   |    |   |   |    |   |   |    
     |------------|------------|------------|------------|
     |----1---1---|----0---0---|----1---1---|----1---1---|
     |----2---2---|----0---0---|----0---0---|----0---0---|
     |------------|------------|------------|0h2---------|
     |------------|------------|3-----------|------------|
     |1-----------|3-----------|------------|------------|
Part E:
            |   |   |    |   |   |    |   |   |       
           |------------|------------|------------|
           |----1---1---|----0---0---|----1---1---|
           |----2---2---|----0---0---|----2---2---|
           |------------|------------|------------|
           |------------|------------|0-----------|
           |1-----------|3-----------|------------|
But there's nothing can  keep me from loving  you      
[ Tab from: http://www.guitartabs.cc/tabs/h/harper_ben/not_fire_not_ice_tab.html ]
 |   |   |    |   |   |    |   |   |    |   |   |
|------------|------------|------------|------------|
|----1---1---|----1---1---|----1---1---|----1---1---|
|----0---0---|----0---0---|----2---2---|----0---0---|
|------------|------------|------------|------------|
|2-----------|3-----------|------------|3-----------|
|------------|------------|1-----------|------------|
        Not   fire         no, not      ice         

 |   |   |    |   |   |    |   |   |    
|------------|------------|------------|
|----1---1---|----1---1---|----0---0---|
|----0---0---|----0---0---|----0---0---|
|0h2---------|------------|------------|
|------------|3-----------|------------|
|------------|------------|3-----------|
         Not  fire         no  not
 
 |   |   |    |   |   |    |   |   |    
|------------|(play softly)|------------|
|----1---1---|--------1----|1-----------|
|----0---0---|--------0----|0-----------|
|------------|-------------|------------|
|3-----------|----3--------|------------|
|------------|1------------|----1-------|
 ice.

**********************************************************************************************************

Date: Mon, 03 Nov 1997 14:03:34 PST
From: ian lindsay 
Subject: Re: TAB of Oppression by Ben Harper

Oppression  by Ben Harper
Transcription by ian lindsay
>From the album Fight For Your Mind
Ben plays it on a Martin 00-18,and it's
all finger picked.Notice that the guitare
is tune a step lower than standard(but the
parts are named after the shapes used in 
standardex:Am is actualy A Gm)
 Part Am:
D---------------------------------------------------
A--0-h-1----1-------0--------0-----1----------------
F--0-h-2----2-------0--------0-----2----------------
C--0-h-2----2---0-------0----------2----------------
G---------------------------------------------------
D---------------------------------------------------
 Part C:(+ Part C* just sweep the second chord)
             
D---------------------------------------------------
A--1----1-----------1-----0----0--------------------
F--0----0-----------0-----0----0--------------------
C--2----2-----------2-------------------------------
G--3----3-------3-----------------------------------
D-------------------------3----3--------------------
 Part D:
D-------------------------0-------------------------
A--3----3-----------3------------0------------------
F--2----2-----------2------------0------------------
C--0----0-------0-----------------------------------
G---------------------------------------------------
D-------------------------0------3------------------
Part H:
D---------------------------------------------------
A-----------------------------------------------
F-----------------------------------------------
C-----------------------------------------------
G-----------------------------------------------
D-----------------------------------------------


Song structure:

[Am,Am,Am,C] [Am,C,Am,C] [Am,C,Am,D]
[Am,C,Am,C] [Am,C,Am,C] [Am,C,Am,D]
[Am,C,Am,C] [Am,C*,Am,C] [Am,C,Am,D]
[Am,C,Am,C] [Am,C*,Am,Am] [Am,..,..,H]
[..,H,..,H]

Questions at ianlindsay@hotmail.com 
Comments