Harper Ben - Jah Work Chords & Tabs

 

Jah Work Chords & Tabs

Harper Ben Chords & Tabs

Version: 1 Type: Bass Tab 0 ratings
1 star 2 stars 3 stars 4 stars 5 stars
comments

Jah Work Bass Tab

FTH80:G D A E ; Generated by Fast Tab, do not erase
====================
>From            : ADRIAN PELLET
Artist          : BEN HARPER 
Bass Performance: JAH WORK
Comments:       : ALBUM:WILL TO LIVE

LISTEN THE CD FOR THE TIMING

ANY COMMENTS OR 
INSULTS :PELLET@CLUB-INTERNET.FR
---


FIRST VERSE
[ Tab from: http://www.guitartabs.cc/tabs/h/harper_ben/jah_work_btab.html ]
|   w  w  w  w  w                                                                
G -------------------------------------------------------------------------------
D -------------------------------------------------------------------------------
A -------------------------------------------------------------------------------
E --1-/3--3--3--3----------------------------------------------------------------
>                                                                                
|   w  w  w  w  w  w  w  w                                                       
G -------------------------------------------------------------------------------
D ------------------------------------------3-------------------------------------
A ---------------------------------------5----------------------------------------
E --6H-5-6/--1\-3--3--3--3-------------------------------------------------------

>SECOND VERSE
                                                                                
|   w  w  w  w                                                                   
G -------------------8------------3-3-----------------------------------------------
D --5--5---------------8---------------3---------3----------------------------------
A --------5---------------6---------------1--------3--------------------------------
E -----------6----------------------------------------1---------------------------

Comments