Harper Ben - Excuse Me Mr Chords & Tabs

 

Excuse Me Mr Chords & Tabs

Harper Ben Chords & Tabs

Version: 2 Type: Tab 0 ratings
1 star 2 stars 3 stars 4 stars 5 stars
comments

Excuse Me Mr Tab

#----------------------------------PLEASE NOTE--------------------------------#
#This file is the author's own work and represents their interpretation of the#
#song. You may only use this file for private study, scholarship, or research.#
#-----------------------------------------------------------------------------#

From: "Ian Lindsay" 
Subject: h/harper_ben/excuse_me_mr.tab
Date: Tue, 14 Apr 1998 00:42:52 PDT



Excuse me Mr
>From the album Figth for your mind
Ben Harper
Transcription Ian Lindsay

Tunning one step below standard

All in finger picking.
 
 
    Intro & outro (first part only):

     rake
d||------------------|---------------------------|
A||----1-p-0---------|---------------------------|
F||---2--p-0---2--0--|--0-h-2----------2---------|
C||--2---p-0------0--|--0-----------2-----2-p-0--|
G||------------------|----------0----------------|
D||------------------|---------------------------|


                          rake
d-----------------------------------------|-------
A---------------------------1-p-0---------|-------
F--------------------------2--p-0---2--0--|--0--2-
C--0--0--0--0--2-----2----2---p-0------0--|-------
G-----------------0-----------------------|-------
D-----------------------------------------|-------

[ Tab from: http://www.guitartabs.cc/tabs/h/harper_ben/excuse_me_mr_tab_ver_2.html ]
d---------------------|--------------------------
A-1-------------------|--------------------------
F---------------------|--------------------------
C---------2--2--2--0--|--0--0---0--0-h-2-----2---
G-----0---------------|-------------------0------
D---------------------|--------------------------


   rake
d-----------------|-----------------------------||
A----1-p-0--------|-----------------------------||
F---2--p-0--2--0--|--0--2-----------------------||
C--2---p-0--------|-----------------------------||
G-----------------|---------0-------------------||
D-----------------|-----------------------------||




     Riff:

   Note: don't take it too strictly, it's what he plays
on the record but when he performes it live he tends to
alternate bass with thumb and chord with fingers.

d||-----------------------------------------------|
A||------------1------1-----1---------1------0----|
F||------------2------0-----0---------0------0----|
C||------------2------2-----2---------2------0----|
G||--0----0----0------3--3-------3----3-----------|
D||------------------------------------------3----|



d|-----------------------------------------------||
A|--0---------0------1-----1---------1-----------||
F|--0---------0------2-----2---------2-----------||
C|--0---------0------2-----2---------2-----------||
G|-------------------0--0-------0----0-----------||
D|--3----3----3----------------------------------||

Comments