Harper Ben - Diamonds On The Inside Chords & Tabs

 

Diamonds On The Inside Chords & Tabs

Harper Ben Chords & Tabs

Version: 2 Type: Tab 0 ratings
1 star 2 stars 3 stars 4 stars 5 stars
comments

Diamonds On The Inside Tab

   
#----------------------------------PLEASE NOTE---------------------------------#
#This file is the author's own work and represents their interpretation of the #
#song. You may only use this file for private study, scholarship, or research. #
#------------------------------------------------------------------------------#

Ben Harper
"Diamonds On The Inside"

I have noticed that no-one has tabbed any of Ben’s new stuff so I tabbed this one because it’s a personnel favourite. This is how he played it during the Blues 
and Roots festival Byron Bay 2003.
Enjoy!

Intro: Sequence of pulloffs, used in intro and chorus commencement and conclusion. I’ll call it Fill for tabbing purposes.

Fill
e  ------------------------------------------------------
B  ------------------------------------------------------
G  ------2/0--------------------------------------------
D  -------------2/0-------------------------------------
A  ---------------------2/0------------------------------
E  -----------------------------3/0----------------------        
[ Tab from: http://www.guitartabs.cc/tabs/h/harper_ben/diamonds_on_the_inside_tab_ver_2.html ]
Verse: 
      G              Am         Bm         Am                G        Cadd9      G
e-----2----------------------2------2------------------------2---------2-----------
B-----2--------------1-------3------3-------1----------------2---------2-------------
G--------------------2-------4------h4------2-------0h2------------------------------
D--------------------2-------4------4-------2-----2-----2--------------2-------------
A-----2----------------------2------2-----------0------------2---------3--------0h2--
E-----3----3s/4--------------2------2------------------------3-----------------3------

Chorus:                    F             C                           G
e-------1-----1---------------------------------------2-------------
B-------1-----1-----------1---------------------------2--------------
Fill ------G-------2-----0h2---------------------0h2-------------------------- Repeat
D-------3------3----------2-------0h2-----0h2---------------------
A-------------------------3----3----------------------2-------------
E-----------------------------------------------------3-------------


Interlude: D, Cadd9, E, G, Cadd9, E, C, D, G, D --- Fill


Transcribed by Pete... A first timer. 
Comments