Harper Ben - Burn One Down Chords & Tabs

 

Burn One Down Chords & Tabs

Harper Ben Chords & Tabs

Version: 3 Type: Tab 1 rating
1 star 2 stars 3 stars 4 stars 5 stars
comments

Burn One Down Tab

   
##################################################################################
# This file is the author's own work and represents their interpretation of the  #
# song. You may only use this file for private study, scholarship, or research.  #
##################################################################################


ARTIST: Ben Harper
SONG: Burn One Down
TABBED BY: Moses Brown     browneye_023@yahoo.com.au


In concert I think he plays it in G instead of F, but 
this is the way its played on the album. The chords 
are pretty simple but listen to the song to get the 
rhythm. Enjoy!


Intro

       F                   
e|------1-----------1----------------------------------------|
B|------1-----------1----------------------------------------|
G|------2-----------2----------------------------------------|
D|------3-----------3----------------------------------------| repeat 4 times
A|------3-----------3------------0-------1---0-------(3)-----|
E|--1---1---1--1----1----1---3-------1-----------3-----------|


Verse
[ Tab from: http://www.guitartabs.cc/tabs/h/harper_ben/burn_one_down_tab_ver_3.html ]
       F                                       Dm                A#
e|------1-----------1----------1----------------1---------1----------------------|
B|------1-----------1----------1----------------3---------3-------3--------------|
G|------2-----------2----------2----------------2---------2-------3--------------|
D|------3-----------3----------3-----------0----0--0--0---0-------3--------------| repeat 2 times
A|------3-----------3----------3------------------------------1---1---1---0------|
E|--1---1---1--1----1---1--1---1----1---0-------------------------------------3--|

      Chorus

        F                     Dm                           C
e|-------1------------1--------1----------1-------1------------------------------
B|-------1------------1--------3----------3-------3---------5--------------------
G|-------2------------2--------2----------2-------2---------5--------------------
D|-------3------------3----0---0---0--0---0---0---0---------5--------------------
A|-------3------------3--------------------------------3----3----1---0-----------
E|--1----1----1--1----1----------------------------------------------------3-----

   If you don't like...                      cos I'm...          doooown

      
        F         Dm        C      A#
---------1---------1------------------------|
---------1---------3---------5-----3--------|
---------2---------2---------5-----3--------|
---------3----0----0---------5-----3--------|
---------3--------------3----3-----1--------|
----1----1----------------------------------|
       yes    I'm gonna...               down

Comments