Harper Ben - Burn One Down Chords & Tabs

 

Burn One Down Chords & Tabs

Harper Ben Chords & Tabs

Version: 2 Type: Tab 1 rating
1 star 2 stars 3 stars 4 stars 5 stars
comments

Burn One Down Tab

   
#----------------------------------PLEASE NOTE--------------------------------#
#This file is the author's own work and represents their interpretation of the#
#song. You may only use this file for private study, scholarship, or research.#
#-----------------------------------------------------------------------------#

Date: Fri, 19 Jun 1998 12:46:14 +0200
From: dperret 
Subject: h/harper_ben/burn_one_down.crd

Artist : Ben Harper
Song : Burn one down
Album : Fight for your mind

Transcript by Damien PERRET

Your should first turn your guitar 1 step down to play this 
song, i.e guitar is tune as
dAFCGD

Riff 1 :
[ Tab from: http://www.guitartabs.cc/tabs/h/harper_ben/burn_one_down_tab_ver_2.html ]
  G                     C   G  
d|--------------------------------|
A|--------------------------------|
F|--------------------------------|
C|--0-------0-----------------0---|
G|--2-------2-----0-2---3-2-0-----|
D|3-3---3-3-3---3-----3---------3-|


Riff 2 :

  G                     C     G
d|------------------------------|
A|------------------------------|
F|------------------------------|
C|--0-------0-------------------|
G|--2-------2-----0-2---3--2--0-|
D|3-3---3-3-3---3-----3---------|


Intro :

Riff 1 x2
Riff 2 x1
Riff 1 x1
Riff 2 x1


then end with riff 1, with slight changes.

Note, this song can be played with the guitar tune in 
eBGDAE, and the chords become
G -> F
E keeps E
A -> D
C -> Bb


Enjoy
Comments