Harley Steve - Make Me Smile Chords & Tabs

 

Make Me Smile Chords & Tabs

Harley Steve Chords & Tabs

Version: 1 Type: Bass Tab 0 ratings
1 star 2 stars 3 stars 4 stars 5 stars
comments

Make Me Smile Bass Tab

G=---------2---------------2----------------------------------
D=----2-3------------2-3---------------0-------------------
A=---------------2------------------0-----0--------------------
E=-1---------------------------3-3-------------1--------------
repeat


pre chorus  ( ohh la la la )

[ Tab from: http://www.guitartabs.cc/tabs/h/harley_steve/make_me_smile_btab.html ]
G=-------------------------------------
D=----3-3-3--2-0-------------------------------
A=----------------2-2-1--0-------------------------------
E=-----------------------------------------------
twice


chorus

G=----------------------------------------------------------
D=--0--0--0--2--3--2--------------0---2----2----2-----------
A=-------------------------0--2---------------------------
E=----------------------3------------------------------------

reapet


i think thats right listen to the music fir timing
Comments