Harlem - Someday Soon Chords & Tabs

 

Someday Soon Chords & Tabs

Harlem Chords & Tabs

Version: 1 Type: Bass Tab 0 ratings
1 star 2 stars 3 stars 4 stars 5 stars
comments

Someday Soon Bass Tab

   
-----------------------------------------------------------------
Someday Soon - Harlem
-----------------------------------------------------------------
Tabbed By: Madrone6
e-mail: je.mathnerd15@gmail.com
Tuning: Standard

Verse: (x2)

G|----------------|----------------|----------------|----------------|
D|----------------|----------------|----------------|----------------|
A|0---------------|------------4---|----------------|2---------------|
E|----------------|----------------|----------------|----------------|

G|----------------|----------------|
D|----------------|----------------|
A|------------4---|----------------|
E|----------------|----------------|

Pre-Chorus: (x1)

G|----------------|----------------|----------------|----------------|
D|----------------|--------2-2-----|----------------|----------6-----|
A|0-----0-0-----0-|0-----0-----0---|4-----4-4-----4-|4-----4-4---4---|
E|----------------|----------------|----------------|----------------|

G|----------------|----------------|----------------|----------------|
D|----------------|----------------|----------------|----------------|
A|2-----2-2-----2-|2-----2-2---2---|4-----4-4-----4-|4-----4-4-4---4-|
E|----------------|----------------|----------------|----------------|

G|----------------|----------------|----------------|----------------|
D|----------------|--------2-2-----|----------------|----------6-----|
A|0-----0-0-----0-|0-----0-----0---|4-----4-4-----4-|4-----4-4---4---|
E|----------------|----------------|----------------|----------------|

G|----------------|----------------|----------------|----------------|
D|----------------|----------------|----------------|----------------|
A|2-----2-2-----2-|2-----2-2---2---|4-----4-4-----4-|4-4-4-4-4-4-4-4-|
E|----------------|----------------|----------------|----------------|

Chorus: (x2)

G|----------------|----------------|----------------|----------------|
D|----------------|----------------|----------------|----------------|
A|0-0-0-0-0-0-0-0-|0-0-0-0-0-0-0-0-|4-4-4-4-4-4-4-4-|4-4-4-4-4-4-4-4-|
E|----------------|----------------|----------------|----------------|

G|----------------|----------------|----------------|----------------|
D|----------------|----------------|----------------|----------------|
A|2-2-2-2-2-2-2-2-|2-2-2-2-2-2-2-2-|4-4-4-4-4-4-4-4-|4-4-4-4-4-4-4-4-|
E|----------------|----------------|----------------|----------------|

Break: (x2)
[ Tab from: http://www.guitartabs.cc/tabs/h/harlem/someday_soon_btab.html ]
G|----------------|----------------|----------------|----------------|
D|----------------|----------------|2---------------|----------------|
A|4-5-5---5-5-5---|5-5-5---5-5-5---|--0-0---0-0-0---|0-0-0---0-0-0---|
E|----------------|----------------|----------------|----------------|

Bridge Part 1: (x1)

G|----------------|----------------|----------------|----------------|
D|----------------|----------------|2---------------|----------------|
A|4-5-5---5-5-5---|5-5-5---5-5-5---|--0-0---0-0-0---|0-0-0---0-0-0---|
E|----------------|----------------|----------------|----------------|

G|----------------|----------------|----------------|----------------|
D|----------------|----------------|2---------------|----------------|
A|4-5-5---5-5-5---|5-5-5---5-5-5---|--0-0---0-0-0---|0-0-0---0-0-0-0-|
E|----------------|----------------|----------------|----------------|

Bridge Part 2: (x1)

G|----------------|----------------|----------------|----------------|
D|----------------|----------------|----------------|----------------|
A|2-2-2-2-2-2-2-2-|2-2-2-2-2-2-2-2-|5-5-5-5-5-5-5-5-|5-5-5-5-5-5-5-5-|
E|----------------|----------------|----------------|----------------|

G|----------------|----------------|----------------|----------------|
D|2-2-2-2-2-2-2-2-|2-2-2-2-2-2-2-2-|2-2-2-2-2-2-2-2-|2---------------|
A|----------------|----------------|----------------|----------------|
E|----------------|----------------|----------------|----------------|

Break: (x1)

G|----------------|----------------|----------------|----------------|
D|----------------|----------------|----------------|----------------|
A|0---------------|------------4---|--------------3-|2---------------|
E|----------------|----------------|----------------|----------------|

G|----------------|----------------|
D|----------------|----------------|
A|----------3-4---|----------------|
E|----------------|----------------|

Outro: (x2)

G|----------------|----------------|----------------|----------------|
D|----------------|----------------|----------------|----------------|
A|0-0-0-0-0-0-0-0-|0-0-0-0-0-0-0-0-|4-4-4-4-4-4-4-4-|4-4-4-4-4-4-4-4-|
E|----------------|----------------|----------------|----------------|

G|----------------|----------------|----------------|----------------|
D|----------------|----------------|----------------|----------------|
A|2-2-2-2-2-2-2-2-|2-2-2-2-2-2-2-2-|4-4-4-4-4-4-4-4-|4-4-4-4-4-4-4-4-|
E|----------------|----------------|----------------|----------------|

End on: 

G|----------------|
D|----------------|
A|0---------------|
E|----------------|



| /  slide up
| \  slide down
| h  hammer-on
| p  pull-off
| ~  vibrato
| +  harmonic
| x  Mute note

Comments