Harlem - Beautiful And Very Smart Chords & Tabs

 

Beautiful And Very Smart Chords & Tabs

Harlem Chords & Tabs

Version: 1 Type: Bass Tab 0 ratings
1 star 2 stars 3 stars 4 stars 5 stars
comments

Beautiful And Very Smart Bass Tab

   
-----------------------------------------------------------------
Beautiful and Very Smart - Harlem
-----------------------------------------------------------------
Tabbed By: Madrone6
e-mail: je.mathnerd15@gmail.com
Tuning: Standard

Intro: (x2)

G|----------------|----------------|----------------|----------------|
D|----------------|--------------2-|3-------------2-|3-------------2-|
A|3---------------|3---------------|----------------|----------------|
E|----------------|----------------|----------------|----------------|

Verse: (x1)

G|----------------|----------------|----------------|----------------|
D|----------------|--------------2-|3-------------2-|3-------------2-|
A|3---------------|3---------------|----------------|----------------|
E|----------------|----------------|----------------|----------------| (x3)

G|----------------|----------------|----------------|----------------|
D|----------------|--------------2-|3-------------2-|3---2---0---2---|
A|3---------------|3---------------|----------------|----------------|
E|----------------|----------------|----------------|----------------| (x1)

Chorus: (x1)

G|----------------|----------------|----------------|----------------|
D|----------------|----------------|----------------|----------------|
A|3-3-3-3-3-3-3-3-|1-1-1-1-1-1-1-1-|0-0-0-0-0-0-0-0-|----------------|
E|----------------|----------------|----------------|1-1-1-1-1-1-1-1-|
[ Tab from: http://www.guitartabs.cc/tabs/h/harlem/beautiful_and_very_smart_btab.html ]
G|----------------|----------------|----------------|----------------|
D|----------------|2-2-2-2-2-2-2-2-|----------------|----------------|
A|3-3-3-3-3-3-3-3-|----------------|0-0-0-0-0-0-0-0-|----------------|
E|----------------|----------------|----------------|1---------------|

Post-Chorus: (x4)

G|----------------|----------------|
D|----------------|----------------|
A|3-3---1-1---0-0-|----------------|
E|----------------|--1-1---1---1---| 

Verse: (x1)

Chorus: (x1)

Post-Chorus: (x4)

Bridge Part 1: (x2)

G|----------------|----------------|----------------|----------------|
D|----------------|----------------|----------------|----------------|
A|3---------------|3---------------|----------------|----------------|
E|----------------|----------------|3---------------|3---------------|

Bridge Part 2: (x2)

G|----------------|----------------|----------------|----------------|
D|----------------|----------------|----------------|----------------|
A|3-3-----------3-|3-3-----------3-|3-3-----------3-|3-3-----------3-|
E|----------------|----------------|----------------|----------------|

G|----------------|----------------|----------------|----------------|
D|----------------|----------------|----------------|----------------|
A|----------------|----------------|----------------|----------------|
E|3-3-----------3-|3-3-----------3-|3-3-----------3-|3-3-----------3-|

Post-Chorus: (x4)

End on:

G|----------------|
D|----------------|
A|3---------------|
E|----------------|



| /  slide up
| \  slide down
| h  hammer-on
| p  pull-off
| ~  vibrato
| +  harmonic
| x  Mute note

Comments