Harem Scarem - Honestly Chords & Tabs

 

Honestly Chords & Tabs

Harem Scarem Chords & Tabs

Version: 4 Type: Tab 0 ratings
1 star 2 stars 3 stars 4 stars 5 stars
comments

Honestly Tab

   
Honestly - Harem Scarem
=======================
Transcribed by : cwps
e-mail : cwps@k.st

h=hammer on
p=pull off
/=slide up
\=slide down


TUNE GUITAR DOWN 1/2 STEP

INTRO :
e:-------------------------------------------------7------|
B:-------------0----------------------------5\4----4------|
G:-----------1---1--------------------------4------4------|
D:-----4---4------------------------------6-------(4)-----|
A:---2---2--------------------2--4/6--4----------4--------|
E:-0-------------------0--2/4-----------------------------|

e:----------------0--------0------------------------------|
B:---9-7-5-7------0---------4-----------------------------|
G:---------------------2/4---4----------------------------|
D:-7/9-7-6-7---7------------------------------------------|
A:-----------0--------------------------------------------|
E:--------------------------------------------------------|

e:-7----9----7----2--------0------------------------------|
B:-9-9--7-7--5-5--4-4-----(0)-----------------------------|
G:---9----8----6----4--2/4---4\2-1------------------------|
D:---------------------4/6---6\4-2------------------------|
A:--------------------------------------------------------|
E:---------------------------------0~~--------------------|

VERSE part : (ALSO THE CHORUS)

     I'll stand before you..........................crime 
e:-------0------------------------------------------------|
B:---0----0-------------------------------------5\4----4--|
G:-----1---1------------------------------------4------4--|
D:--------------------------------------------6-------(4)-|
A:--------------------------------2--4/6--4----------4----|
E:-0----------0~~----------0--2/4-------------------------|
[ Tab from: http://www.guitartabs.cc/tabs/h/harem_scarem/honestly_tab_ver_4.html ]
          but i... believe.........................survive
e:--------------------0---------------------------------0---------|
B:--0---------------0--0-------------------0----------2--2--------|
G:-------------------2--2------------------------------1--1-------|
D:-6--4/6-2/4-2----------------------2--4/6---2/4-2---------------|
A:---------------0--------0---0--2/4------------------------------|
E:--------------------------------------------------0-------0~~---|


bridge :

e:--------------------|
B:---9--------7-------|
G:-----9--------8-----|
D:-------9--------9---|
A:-/7-------6---------|
E:--------------------|

C#m	B     A                E
How was I to know right from wrong

e:--------------------|
B:-----------7--------|
G:-8--9--------8------|
D:---------------9----|
A:-6--7----6----------|
E:------0-------------|

C#m		     B
Words were hardly spoken ..............



SOLO :

e:-12------11-12----11------12-11-------|
B:-----12---------------12--------------|
G:-13------11-13----11------13-11-------|
D:--------------------------------------|
A:--------------------------------------|
E:--------------------------------------|

e:---9--7--5--4---------4--5--4---------|
B:---------------5---5------------------|
G:-8h9--8--6--4---------4--6--4---------|
D:---------------6---6------------------|
A:--------------------------------------|
E:--------------------------------------|

e:--------------------------------------|
B:----12--10--9--7--9--7----------------|
G:-11h13--11--9--8--9--8--6--6h8--4-----|
D:------------------------7--7----6-----|
A:--------------------------------------|
E:--------------------------------------|

e:--------------------------------------|
B:---7--9--10--9--7h9p7-----------------|
G:-(9)-9--9---9--9-----9----------------|
D:--------------------------------------|
A:--------------------------------------|
E:--------------------------------------|

e:-------------------------------9---12-|
B:----7-----9-----10-----12-10h12--12---|
G:-8h9--9h11--11h13--13h14--------------|
D:--------------------------------------|
A:--------------------------------------|
E:--------------------------------------|
Comments