Hardcore Superstar - Someone Special Chords & Tabs

 

Someone Special Chords & Tabs

Hardcore Superstar Chords & Tabs

Version: 1 Type: Tab 0 ratings
1 star 2 stars 3 stars 4 stars 5 stars
comments

Someone Special Tab

TITLE: SOMEONE SPECIAL
BAND: HARDCORE SUPERSTAR

intro

---------------------------------------------------------------|
---------------------------------------------------------------|
---------------------------------------------------------------|
--9-9-9-9-9-9-9-9--6-6-6-6-6-6-6-6--4-4-4-4-4-4-4-5--6-6-6-6-6-|
--9-9-9-9-9-9-9-9--6-6-6-6-6-6-6-6--4-4-4-4-4-4-4-5--6-6-6-6-6-|
--7-7-7-7-7-7-7-7--4-4-4-4-4-4-4-4--2-2-2-2-2-2-2-3--4-4-4-4-4-|
[ Tab from: http://www.guitartabs.cc/tabs/h/hardcore_superstar/someone_special_tab.html ]
verse
---------------------------------------------------------------|
---------------------------------------------------------------|
---------------------------------------------------------------|
--9-9-9-9-9-9-9-9--6-6-6-6-6-6-6-6--4-4-4-4-4-4-4-5--6-6-6-6-6-|
--9-9-9-9-9-9-9-9--6-6-6-6-6-6-6-6--4-4-4-4-4-4-4-5--6-6-6-6-6-|
--7-7-7-7-7-7-7-7--4-4-4-4-4-4-4-4--2-2-2-2-2-2-2-3--4-4-4-4-4-|


bridge

------------------------------------|
------------------------------------|
------------------------------------| (x2)
--9-9-9-9-9-9-9-9--6-6-6-6-6-6-6-6--|
--9-9-9-9-9-9-9-9--6-6-6-6-6-6-6-6--|
--7-7-7-7-7-7-7-7--4-4-4-4-4-4-4-4--|

rit

---------------------------------------------------------------|
---------------------------------------------------------------|
---------------------------------------------------------------|
--9-9-9-9-9-9-9-9--6-6-6-6-6-6-6-6--4-4-4-4-4-4-4-5--6-6-6-6-6-|
--9-9-9-9-9-9-9-9--6-6-6-6-6-6-6-6--4-4-4-4-4-4-4-5--6-6-6-6-6-|
--7-7-7-7-7-7-7-7--4-4-4-4-4-4-4-4--2-2-2-2-2-2-2-3--4-4-4-4-4-|


Good bye: Mike

my e-mail adress is gilumida@tin.it
Comments