Hard-fi - Tied Up Too Tight Chords & Tabs

 

Tied Up Too Tight Chords & Tabs

Hard-fi Chords & Tabs

Version: 1 Type: Tab 0 ratings
1 star 2 stars 3 stars 4 stars 5 stars
comments

Tied Up Too Tight Tab

   
Awesome track, this is the pish easy guitar bit that runs through the song.


   4/4
    Gtr I
    Q Q Q C  Q Q Q   +Q  Q Q C  Q Q    Q Q Q C  Q Q Q   +Q  Q Q C  Q C
||--------7------9-|-(9)-----7-------|-------7------9-|-(9)-----7------|
||o---8------8-----|-----8------8----|---7------7-----|-----7------7---|
||--9---9------9---|-------9------9--|-7---7------7---|-------7------7-|
||-----------------|-----------------|----------------|----------------|
||o----------------|-----------------|----------------|----------------|
||-----------------|-----------------|----------------|----------------|

[ Tab from: http://www.guitartabs.cc/tabs/h/hard_fi/tied_up_too_tight_tab.html ]
  Q Q Q C  Q Q Q   +Q  Q Q C  Q C    Q Q Q C  Q C    Q Q Q C  Q C  nx
|-------6------7-|-(7)-----6-------|-------9--7----|-------7--6----||
|---7------7-----|-----7------7----|---7--------7--|---7--------7-o||
|-6---6------6---|-------6------6--|-7---7---------|-6---6---------||
|----------------|-----------------|---------------|---------------||
|----------------|-----------------|---------------|--------------o||
|----------------|-----------------|---------------|---------------||


I think the pre chorus chord progression goes

B A G F# ?E? F# G A B

But I can't be sure.
Comments