Hard-fi - Hard To Beat Chords & Tabs

 

Hard To Beat Chords & Tabs

Hard-fi Chords & Tabs

Version: 3 Type: Tab

Hard To Beat Tab

Hi, I reckon the song uses the following chords:

E--x---------8----------10----------------------------|
B--11--------8----------10----------------------------|
G--12--------8----------10----------------------------|
D--10--------8----------10----------------------------|
A-----------------------------------------------------|
E--11--------8----------10----------------------------|

[ Tab from: http://www.guitartabs.cc/tabs/h/hard_fi/hard_to_beat_tab_ver_3.html ]
the first chord may be
E---6---------------------------------------------|
B---8---------------------------------------------|
G---7---------------------------------------------|
D---8---------------------------------------------|
A---6---------------------------------------------|
E-------------------------------------------------|

intersted to hear your thoughts: freelondonuk@hotmail.co.uk