Happy Campers - Wave The Flag Chords & Tabs

 

Wave The Flag Chords & Tabs

Happy Campers Chords & Tabs

Version: 1 Type: Tab 0 ratings
1 star 2 stars 3 stars 4 stars 5 stars
comments

Wave The Flag Tab

------------------------------------------------------------------------  
Wave the Flag 
the Happy Campers off their Black Bear album
Tabbed by:The Jackal
Saw these guys at Warp Tour, they kicked ass.

Tuning: Standard
Distorted
*=let ring
Intro
e|---------------------------------------------------------------------------|
B|---------------------------------------------------------------------------|
G|55555----------------------------------88888-------------------------------|
D|55555------------66666-----------------88888-------------------88888-------|
A|33333------------66666-----------------66666-------------------88888-------|
E|-----------------44444-----------------------------------------66666-------|
       Wave the flag     as we march off to war, the body bag count doesn't matter any more
e|---------------------------------------------------------------------------|
B|---------------------------------------------------------------------------|
G|55555----------------------------------88888-------------------------------|
D|55555------------66666-----------------88888-------------------88888-------|
A|33333------------66666-----------------66666-------------------88888-------|
E|-----------------44444-----------------------------------------66666-------|
How quickly we become, uncivilized, when the dirt kicked is kicked in oureyes
[ Tab from: http://www.guitartabs.cc/tabs/h/happy_campers/wave_the_flag_tab.html ]
e|---------------------------------------------------------------------------|
B|---------------------------------------------------------------------------|
G|5*----------------------------------8*-------------------------------------|
D|5*------------6*--------------------8*----------------------------8*-------|
A|3*------------6*--------------------6*----------------------------8*-------|
E|--------------4*--------------------------------------------------6*-------|
  A world away  we drop bombs  while back at home every cars got a flag     sticker on
e|---------------------------------------------------------------------------|
B|---------------------------------------------------------------------------|
G|5*----------------------------------888888---------------------------------|
D|5*------------6*--------------------888888------------------------88888----|
A|3*------------6*--------------------666666------------------------88888----|
E|--------------4*--------------------------------------------------66666----|
  and we sing patriotic songs no one knows,         whats really going ooonnn

Bridge
e|---------------------------------------------------------------------------|
B|---------------------------------------------------------------------------|
G|555-5------555-5-875--555-5------------------------------------------------|
D|555-5-656--555-5-875--555-5-656-----656865---------------------------------|
A|333-3-656--333-3-653--333-3-656-----656865---------------------------------|
E|------434-------------------434-----434643---------------------------------|

Verse
e|----------------------------------|
B|----------------------------------|
G|55555555--------88888888----------|
D|55555555666666668888888888888888--|
A|33333333666666666666666688888888--|
E|--------44444444--------66666666--|Don't get me wrong, I love my country....

 Chorus
e|----------------------------------------------------------------------------|
B|----------------------------------------------------------------------------|
G|5555------8888--------------------------------------------------------------|
D|5555-6666-8888-8888---------------------------------------------------------|
A|3333-6666-6666-8888---------------------------------------------------------|
E|-----4444------6666---------------------------------------------------------|
  Let the bombs decide...


End
e|---------------------------------------------------------------------------|
B|---------------------------------------------------------------------------|
G|5-5--5*--------------------------------------------------------------------|
D|5-5--5*--------------------------------------------------------------------|
A|3-3--3*--------------------------------------------------------------------|
E|---------------------------------------------------------------------------|
Comments