Happy Campers - Hurting You Chords & Tabs

 

Hurting You Chords & Tabs

Happy Campers Chords & Tabs

Version: 1 Type: Tab 0 ratings
1 star 2 stars 3 stars 4 stars 5 stars
comments

Hurting You Tab

This a  great song by Happy campers
so here it is..."Hurting You"

e)----0320----32320----53230-------|
B)---------------------------------|
G)---------44-------55-------------|
D)-22------44-------55-------55-44-|   X4
A)-22------22-------33-------55-44-|
E)-00------------------------33-22-|

Verse:

e)-----------------------------------------|
B)-----------------------------------------|
G)-----------44444444--55555555------------|
D)-22222222--44444444--55555555--5555-4444-|   X4
A)-22222222--22222222--33333333--5555-4444-|
E)-00000000----------------------3333-2222-|

Chorus:
[ Tab from: http://www.guitartabs.cc/tabs/h/happy_campers/hurting_you_tab.html ]
e)-----------------------------------------|
B)-----------------------------------------|
G)-99999999--55555555------------77777777--|
D)-99999999--55555555--55555555--77777777--|
A)-77777777--33333333--55555555--55555555--|
E)---------------------33333333------------|

Verse.
Chorus.

Bridge

e)-----------------------------|
B)-----------------------------|
G)--------4x-4x--5x-5x---------|
D)-2x-2x--4x-4x--5x-5x--5x--4x-|    X10
A)-2x-2x--2x-2x--3x-3x--5x--4x-|
E)-0x-0x----------------3x--2x-|

Chorus.

Ending:

e)------------|
B)------------|
G)-5-5-5-5----|
D)-5-5-5-5--2-|
A)-3-3-3-3--2-|
E)----------0-|

any questions e-mail me at fishgutsd@yahoo.com....this is Diego saying..."Good Luck"
Comments