Hanson - When Youre Gone Chords & Tabs

 

When Youre Gone Chords & Tabs

Hanson Chords & Tabs

Version: 2 Type: Chords 0 ratings
1 star 2 stars 3 stars 4 stars 5 stars
comments

When Youre Gone Chords

   
Hey guys!  Jess here.  I hope these are fairly correct--if not, let me know what should
be changed, and I will change what needs it!

Basically, all you need to know on this one is that each sixteenth note is strummed-
however, I've only tabbed the accented beats, including their chord changes.  I didn't
want it to look monotonous and the number changes to get lost, so I only tabbed the
accented beats.  Enjoy! 

This is for Lindsay (my Dirty Little Minx), because I love her so very, very much


--Jess


When You're Gone
Hanson
Underneath Acoustic / Underneath, 2004

Intro to the intro--
E-|------------0000|
B-|------------0000|
G-|------------2221|
D-|------------2222|
A-|------------2222|
E-|------------0000|

Intro--
E-|0--0---0---00000|
B-|0--0---0---00000|
G-|1--1---1---12221|
D-|2--2---2---22222|
A-|2--2---2---22222|
E-|0--0---0---00000|
(repeat 4 times)


Verse 1--
E-|0--0---0---00000|
B-|0--0---0---00000|
G-|1--1---1---12221|
D-|2--2---2---22222|
A-|2--2---2---22222|
E-|0--0---0---00000|
(repeat 8 times)
[ Tab from: http://www.guitartabs.cc/tabs/h/hanson/when_youre_gone_crd_ver_2.html ]
Chorus--
E-|0--0---0---0---0|0--0---0---0---0|
B-|2--2---2---2---2|0--0---0---0---0|
G-|2--2---2---2---2|1--1---1---1---1|
D-|2--2---2---2---2|2--2---2---2---2|
A-|0--0---0---0---0|2--2---2---2---2|
E-|0--0---0---0---0|0--0---0---0---0|
(repeat 3 times)
E-|0--0---0---0---0|0-----------0000|
B-|2--2---2---2---2|2-----------0000|
G-|2--2---2---2---2|1-----------2221|
D-|2--2---2---2---2|2-----------2222|
A-|0--0---0---0---0|2-----------2222|
E-|0--0---0---0---0|0-----------0000|

Preverse (same as intro)
Verse 2 (same as verse 1)
Chorus

Bridge--
E-|0--0---0---0---0|0-0-000-----0-0-|
B-|2--2---2---2---2|0-0-000-----0-0-|
G-|2--2---2---2---2|2-2-221-----1-1-|
D-|2--2---2---2---2|2-2-222-----2-2-|
A-|0--0---0---0---0|0-0-002-----2-2-|
E-|0--0---0---0---0|0-0-000-----0-0-|
(repeat 4 times)
E-|0-0-000-----0-0-|
B-|0-0-000-----0-0-|
G-|2-2-221-----1-1-|
D-|2-2-222-----2-2-|
A-|0-0-002-----2-2-|
E-|0-0-000-----0-0-|

Preverse (same as intro)
Verse 3 (same as verse 1)
Chorus
Outro (same as intro)

End Chord (E)--
E-|0
B-|0
G-|1
D-|2
A-|2
E-|0


To get a basic idea of it, try to play along with the studio version.  You'll be able to
get the hang of the rhythm better that way.

Questions?  Comments?  Changes?  tellyfizzle@gmail.com
Comments