Hanson - Lost Without Each Other Chords & Tabs

 

Lost Without Each Other Chords & Tabs

Hanson Chords & Tabs

Version: 3 Type: Tab 0 ratings
1 star 2 stars 3 stars 4 stars 5 stars
comments

Lost Without Each Other Tab

----------------------------------------------------------------------------
			     SONG NAME - Band Name
----------------------------------------------------------------------------
Tabbed by:omar mokhtar sufri
Email:guitaristkl@hotmail.com

Tuning:
[ Tab from: http://www.guitartabs.cc/tabs/h/hanson/lost_without_each_other_tab_ver_3.html ]
intro:
e|--------------------------------------------------------------------------|
B|--------------------------------------------------------------------------|
G|------9--9--9-9---11-------8---9----6--6----8--8--------------------------|
D|------9--9--9-9---11---9---9---9----7--7----9--9--------------------------|
A|---7--7--7--7-7---9----9---9---7----7--7----9--9--------------------------|
E|-----------------------7---7--------5--5----7--7--------------------------|

fill:
e|--------------------------------------------------------------------------|
B|--------------------------------------------------------------------------|
G|-------9---------9----8-----6-------6-----8-------------------------------|
D|---9---------9-----9-----7--------7-----9------(2x)-----------------------|
A|--------------------------------------------------------------------------|
E|--------------------------------------------------------------------------|

u can get the solo from other tabbers...but this is mostly the whole song n its 98%
sound the same...listen to the strummin pattern n timing..great song for summer
time.chizo!
============================================================================
Comments