Hanson - Beautiful Eyes Chords & Tabs

 

Beautiful Eyes Chords & Tabs

Hanson Chords & Tabs

Version: 1 Type: Tab 0 ratings
1 star 2 stars 3 stars 4 stars 5 stars
comments

Beautiful Eyes Tab

-------------------------------------------------------------------------
Hanson - Beautiful Eyes - underneath
-------------------------------------------------------------------------------
Tabbed by: Hans Fausto
Email: greaverx@yahoo.com

Tuning: standard

**pretty simple song...just loop the plucking over and over and once
  you reach the end of the verse just do the strum(***)..hope you like it
  if you wanna correct me on anything feel free to do so..email me or smtinü**

e|---------(3)-------(3)-------------------------(6)----------------------------|
B|------------(4)-------(4)--------------(4)-----------(4)----------------------|
G|----(5)------------------(5)-------(5)----(5)-----(5)----(5)------------------|
D|----------------(5)----------(5)(6)-------------------------------------------|
A|------------------------------------------------------------------------------|
E|------------------------------------------------------------------------------|
[ Tab from: http://www.guitartabs.cc/tabs/h/hanson/beautiful_eyes_tab.html ]
e|------(6)-------(6)-------------------------(3)------------------------------|
B|---------(3)-------(3)--------------(3)------------(3)-----------------------|
G|------------(3)-------(3)-------(3)----(3)-----(3)-----(3)-------------------|
D|--(3)---------------------(3)(5)---------------------------------------------|
A|-----------------------------------------------------------------------------|
E|-----------------------------------------------------------------------------|


*** this is what you strum at the end of the verse***
e|------(3)--------------------------------------------------|
B|------(3)--------------------------------------------------|
G|------(3)--------------------------------------------------|
D|------(5)--------------------------------------------------|
A|-----------------------------------------------------------|
E|-----------------------------------------------------------|


 (ü) tnx to maanski for tellin me to dwnload ths song...her fault
     why i tabbed it...pretty song.. hehe

=============================================================================
Comments