Hanker - Holy Screen Chords & Tabs

 

Holy Screen Chords & Tabs

Hanker Chords & Tabs

Version: 2 Type: Tab 0 ratings
1 star 2 stars 3 stars 4 stars 5 stars
comments

Holy Screen Tab

   
#----------------------------------PLEASE NOTE--------------------------------#
#This file is the author's own work and represents their interpretation of the#
#song. You may only use this file for private study, scholarship, or research.#
#-----------------------------------------------------------------------------#

Date: Fri, 20 Mar 1998 19:04:38 -0500
From: Pierre Begin 
Subject: h/hanker/holy_screen.tab


HOLY SCREEN
HANKER

Tabbed by Steve Begin
(With a little help from Pascal!)


(All gtrs tuned down 1/2 step)

Eb |-----------------|--------------------------------------|
Bb |-----------------|-(Pinch Harmonic here for gtr 1!)-----|
Gb |-----------------|--------------------------------------|
Db |-4--4------------|--------------------------------------|
Ab |-4--4------------|--------------------------------------|
Eb |-2--2------------|----------------(Slide for gtr 2!)----|

                                                       4 times
Eb |----------------------------|----------------------------|
Bb |----------------------------|----------------------------|
Gb |o---------------------------|---------------------------o|
Db |o---------------------------|---------------------------o|
Ab |----------------------------|-------------------5------5-|
Eb |-2-2-0-3(B)--0-2-2-0-3(B)--0|-2-2-0-3(B)--2-0-0-3--0-0-3-|
                                               PM___|  PM__|

VERSE:
    Day after Day.....                                    4 times
Eb |-----------------------------|-----------------------------|
Bb |-----------------------------|-----------------------------|
Gb |o----------------------------|----------------------------o|
Db |o----------------------------|-------------------5------5-o|
Ab |-4--4-4-4-4--4-4--4-4-4-4--4-|-4--4-4-4-4--4-4-4-5--4-4-5--|
Eb |-2--2-2-2-2--2-2--2-2-2-2--2-|-2--2-2-2-2--2-2-2-3--2-2-3--|
     PM____________________________________________|    PM_|

PRECHORUS:  (Double time)
    You say that...
Eb |-----------------|-----------------|----------------|-----------------|
Bb |-----------------|-----------------|----------------|-----------------|
Gb |o-4--------------|-----------------|-2--------------|-----------------|
Db |o-4--4-4-4-4-4-4-|-4-4-4-4-4-4-4-4-|-2--2-2-2-2-2-2-|-2-2-2-2-2-2-2-2-|
Ab |--2--2-2-2-2-2-2-|-2-2-2-2-2-2-2-2-|-0--0-0-0-0-0-0-|-0-0-0-0-0-0-0-0-|
Eb |-----------------|-----------------|----------------|-----------------|
        PM____________________________|    PM____________________________|
                                                       ________________
    Cause the world....                               |1.
Eb |----------------|-----------------|---------------|----------------|
Bb |----------------|-----------------|---------------|----------------|
Gb |-7--------------|-----------------|-9----------9--|-----7------7--o|
Db |-7--7-7-7-7-7-7-|-7-7-7-7-7-7-7-7-|-9--9-9-9-9-9--|-7-7-7--7-7-7--o|
Ab |-5--5-5-5-5-5-5-|-5-5-5-5-5-5-5-5-|-7--7-7-7-7-7--|-5-5-5--5-5-5---|
Eb |----------------|-----------------|---------------|----------------|
        PM___________________________|    PM_____|      PM_|   PM_|
    _________________
   |2.
Eb |----------------|
Bb |----------------|
Gb |-----7---------o|
Db |-7-7-7------7--o|
Ab |-5-5-5--7-7-7---|
Eb |--------5-5-5---|
     PM_|   PM_|
                                __________________________
                                |1.
Eb |----------------------------|----------------------------|
Bb |----------------------------|----------------------------|
Gb |o---------------------------|---------------------------o|
Db |o---------------------------|---------------------------o|
Ab |----------------------------|-------------------5------5-|
Eb |-2-2-0-3(B)--0-2-2-0-3(B)--0|-2-2-0-3(B)--2-0-0-3--0-0-3-|
                                              PM___|  PM__|
   ____________________
   |2.
Eb |-------------------------|
Bb |-------------------------|
Gb |-------------------------|
Db |-------------------5-----|
Ab |-------------------5-----|
Eb |-2-2-0-3(B)--2-0-0-3-----|
                 PM___|

2nd VERSE
2nd PRECHORUS

CHORUS:
    Cry.....                                   When you're
Eb |-----------------------------|-------------------------|
Bb |-----------------------------|-------------------------|
Gb |-----------------------------|-------------------------|
Db |-----------------------------|---------------5(Gtr2)---|
Ab |-4--4-4-4-4--4-4--4-4-4-4--4-|-4--4-4-4-4--4-----5-----|
Eb |-2--2-2-2-2--2-2--2-2-2-2--2-|-2--2-2-2-2--2-3(Gtr1)-3-|
     PM_________________________________________|

    alone..                                     You watch the
Eb |-----------------------------|------------------------|
Bb |-----------------------------|------------------------|
Gb |-----------------------------|---------------4--------|
Db |-----------------------------|------------------5-----|
Ab |-4--4-4-4-4--4-4--4-4-4-4--4-|-4--4-4-4-4--4-2-----7--|
Eb |-2--2-2-2-2--2-2--2-2-2-2--2-|-2--2-2-2-2--2----3--0--|
     PM_________________________________________|

    screen                                     When you're
Eb |-----------------------------|------------------------|
Bb |-----------------------------|------------------3-----|
Gb |-----------------------------|------------------------|
Db |-----------------------------|---------------5-----5--|
Ab |-4--4-4-4-4--4-4--4-4-4-4--4-|-4--4-4-4-4--4----5-----|
Eb |-2--2-2-2-2--2-2--2-2-2-2--2-|-2--2-2-2-2--2-3-----3--|
     PM_________________________________________|

   alone                                       You'd like to
Eb |-----------------------------|------------------------|
Bb |-----------------------------|------------------------|
Gb |-----------------------------|---------------4--------|
Db |-----------------------------|------------------5-----|
Ab |-4--4-4-4-4--4-4--4-4-4-4--4-|-4--4-4-4-4--4-2-----7--|
Eb |-2--2-2-2-2--2-2--2-2-2-2--2-|-2--2-2-2-2--2----3--0--|
     PM_________________________________________|


Eb |-----------------------------|---------------------------|
Bb |-----------------------------|---------------------------|
Gb |o----------------------------|--------------------------o|
Db |o-----------5-------------5--|------------5-----5-----5-o|
Ab |-4--4-4-4-4-5--4--4-4-4-4-5--|-4--4-4-4-4-5--4--5--4--5--|
Eb |-2--2-2-2-2-3--2--2-2-2-2-3--|-2--2-2-2-2-3--2--3--2--3--|
     PM________|   PM________|     PM________|   PM

1st Harmonies (Double Time)
Eb |-------|------|-------|-----|-------|------|-------|-----|------|-----|
Bb |-------|------|-------|-----|-------|------|-------|-----|------|-----|
Gb |-------|------|-------|-----|-------|------|-------|-----|------|-----|
Db |-------|------|-------|-----|-------|------|-------|-----|------|-----|
Ab |-------|------|-------|-----|-------|------|-------|-7---|----7-|-9---|
Eb |-7---9-|-10---|-6---7-|-9---|-7---9-|-10---|-9---10|-----|10----|-----|
   |
   |
Eb |-------|------|-------|-----|-------|------|-------|-----|------|-----|
Bb |-------|------|-------|-----|-------|------|-------|-----|------|-----|
Gb |-------|------|-------|-----|-------|------|-------|-----|------|-----|
Db |-------|------|-------|-----|-------|------|-------|-----|------|-7---|
Ab |-----7-|-9----|-------|-7---|-----7-|-9----|-7---9-|10---|-9--10|-----|
Eb |-10----|------|-9---10|-----|-10----|------|-------|-----|------|-----|


Eb |-------|------|-------|-------|-------|------|
Bb |-------|------|-------|-------|-------|------|
Gb |-------|------|-------|-------|-------|------|
Db |-------|------|-------|-------|-------|------|
Ab |-7-----|------|-------|-------|-------|------|
Eb |-----9-|-6----|-10--9-|-7---6-|-7-----|------|
   |
   |
Eb |-------|------|-------|-------|-------|------|
Bb |-------|------|-------|-------|-------|------|
Gb |-------|------|-------|-------|-------|------|
Db |-------|------|-------|-------|-------|------|
Ab |-10--7-|------|-9---7-|-------|-------|------|
Eb |-------|-9----|-------|10---9-|-10----|------|

1st Solo (Pascal Cliche)
Eb |-5-9-5~~~~~~~-7-10-7~~~|-9-12-9~~~~~~|-15-14-12-15-----|
Bb |-(Fast picking)_____________________||---\/\/----------|
Gb |---------|-------------|-------------|---P-P-----------|
Db |---------|-------------|-------------|-----------------|
Ab |---------|-------------|-------------|-----------------|
Eb |---------|-------------|-------------|-----------------|

Eb |--------7-10-7-------|--------7-10-7-------|--------7---|
Bb |-------7---\/-7------|-------7---\/-7------|-------7----|
Gb |------7-----P--7-----|------7-----P--7-----|------7-----|
Db |--H--7----------7----|--H--7----------7----|-----7------|
Ab |-/\-9------------9---|-/\-9------------9---|----9-------|
Eb |7-10---------------7-|7-10---------------7-|7-10--------|
    #________| V_________|  #________| V_________|

(Not sure:)
Eb |-10-9-7-7-9-7-----------------------------|
Bb |---------\/\/-10-8-7-7-8-7----------------|
Gb |---------H--P--------\/\/--10-9-7-7-9-7---|
Db |----------------------H-P---------\/\/--9-|
Ab |-----------------------------------H-P----|
Eb |------------------------------------------|

[ Tab from: http://www.guitartabs.cc/tabs/h/hanker/holy_screen_tab_ver_2.html ]
Eb |-------|--------|------------------------|
Bb |-------|--------|------P-----------------|
Gb |-------|--------|-----/\-----------------|
Db |-8---9-|-11--12-|-11-11-9-8-9-11-12-11-9-|
Ab |-------|--------|------------------------|
Eb |-------|--------|------------------------|

Eb |-------------------------------------------|
Bb |-------H-P---------------------------------|
Gb |------/\/\-------H-P------H-P--------------|
Db |-9---7-9-7------/\/\------/\/\-------------|
Ab |----------10-9--7-9-7-5-7-5-7-5-4-5-4-2-0-2|
Eb |-------------------------------------------|

Rhythm section of 1st guitar solo: F#5 (4 bars), B5 (4 bars),
                                   F#5 (4 bars), B5 (4 bars).
(Play it in straight PMed 8th notes)
(Note: Play a D note before each 4 bars block.)

2nd Harmonies
Eb |-------|------|-------|-----|-------|------|-------|-----|------|-----|
Bb |-------|------|-------|-----|-------|------|-------|-----|------|-----|
Gb |-------|------|-------|-----|-------|------|-------|-----|------|-----|
Db |-------|------|-------|-----|-------|------|-------|-----|------|-----|
Ab |-------|------|-------|-----|-------|------|-----4-|-7---|-5--7-|-5---|
Eb |-7---9-|-10---|-6---7-|-9---|-7---9-|-10---|-5-----|-----|------|-----|
   |
   |
Eb |-------|------|-------|-----|-------|------|-------|-----|------|-----|
Bb |-------|------|-------|-----|-------|------|-------|-----|------|-----|
Gb |-------|------|-------|-----|-------|------|-------|-----|------|-----|
Db |-------|------|-------|-----|-------|------|-------|-----|------|-----|
Ab |-----7-|-9----|-------|-7---|-----7-|-9----|-----7-|10---|-9--10|-9---|
Eb |-10----|------|-9---10|-----|-10----|------|-9-----|-----|------|-----|


Eb |-------|------|-------|-------|-------|------|
Bb |-------|------|-------|-------|-------|------|
Gb |-------|------|-------|-------|-------|------|
Db |-------|------|-------|-------|-------|------|
Ab |-4---5-|------|-5---4-|-------|-------|------|
Eb |-------|-6----|-------|-7---6-|-7-----|------|
   |
   |
Eb |-------|------|-------|-------|-------|------|
Bb |-------|------|-------|-------|-------|------|
Gb |-------|------|-------|-------|-------|------|
Db |-------|------|-------|-------|-------|------|
Ab |-7---9-|------|-9---7-|-------|-------|------|
Eb |-------|-9----|-------|10---9-|-10----|------|

2nd Solo (Patrick Gravel)
Eb |--------14--14--------14-15-17-15-14------|
Bb |12(B)---------17-15-14-\/--\/-\/-\/-15-14-|
Gb |-----14--------\/--\/---H--H---P--P--\/---|
Db |----------------P---P----------------P----|
Ab |------------------------------------------|
Eb |------------------------------------------|

Eb |-----H--P------------------------------H--H-----------sl.|
Bb |----/\-/\----------P--P---------H-H----/\-/\----sl.---/12|
Gb |12-11-12-11~~~~~~-/\-/\---H----/\-/\--11-12-14-11\-------|
Db |-----------------14-12-11-/\--11-12-14-------------------|
Ab |-------------------------12-14---------------------------|
Eb |---------------------------------------------------------|
                     Not Sure________________________|
      H  P                H P        H  P                H  P
Eb |-/\-/\------H-P------/\-/\------/\-/\----15-16-15~~-/\-/\------H--P------|
Bb |11-12-11~~--/\/\----14-15-14~~-11-12-11~~--\/-\/---14-15-14~~--/\/\------|
Gb |----------12-13-12~~------------------------H-P--------------15-16-15~~--|
Db |-------------------------------------------------------------------------|
Ab |-------------------------------------------------------------------------|
Eb |-------------------------------------------------------------------------|

Eb --H--P-----------|-----------------------------------|-------------------|
Bb -/\-/\-----------|-----------------------------------|-------------------|
Gb 12-13-12~~-------|---H--P---H-P--H-P----H-P--H-P-----|---------(Pinch----|
Db ----------14-----|--/\-/\--/\/\-/\/\---/\/\-/\/\-----|-4-------Harmonic!)|
Ab -----------------|-9-10-9-7-9-7-5-7-5-4-5-4-2-4-2----|-4-----------------|
Eb -----------------|--------------------------------3--|-2-----------------|
                      Both Guitars_________________________|

Rhythm section of 2nd guitar solo: F#5 (4 bars), B5 (4 bars),
                                   F#5 (4 bars).
(Play it in straight PMed 8th notes)
(Note: Play a D note before each 4 bars block.)

BRIDGE:
    Screen seems like God....
Eb |-----------------------------|-----------------------------|
Bb |-----------------------------|-----------------------------|
Gb |o----------------------------|-----------------------------|
Db |o----------------------------|-----------------------------|
Ab |-4--4-4-4-4--4-4--4-4-4-4--4-|-4--4-4-4-4--4-4--4-4-4-4--4-|
Eb |-2--2-2-2-2--2-2--2-2-2-2--2-|-2--2-2-2-2--2-2--2-2-2-2--2-|
     PM_______________________________________________________|

Eb |-----------------------------|------------------------------|
Bb |-----------------------------|------------------------------|
Gb |-----------------------------|-----------------------------o|
Db |--------4--------------------|--------4--------------------o|
Ab |-3-------------3-------------|-3-------------3--------------|
Eb |----2-2----2-2---2--2--2-2-2-|----2-2----2-2---2--2--2-2-2--|
       PM__|  PM________________|    PM__|  PM________________|

    Holy Screen......
Eb |-----------------------------|------------------------------|
Bb |-----------------------------|------------------------------|
Gb |-----------------------------|-----------------------------o|
Db |--------4--------------------|--------4--------------------o|
Ab |-3-------------3-------------|-3-------------3--------------|
Eb |----2-2----2-2---2--2--2-2-2-|----2-2----2-2----------------|
       PM__|  PM________________|    PM__|  PM__|

VERSE 3
PRECHORUS 3

CHORUS:
    Cry.....                                   When you're
Eb |-----------------------------|-------------------------|
Bb |-----------------------------|-------------------3-----|
Gb |-----------------------------|-------------------------|
Db |-----------------------------|---------------5-------5-|
Ab |-4--4-4-4-4--4-4--4-4-4-4--4-|-4--4-4-4-4--4-----5-----|
Eb |-2--2-2-2-2--2-2--2-2-2-2--2-|-2--2-2-2-2--2-3-------3-|
     PM_________________________________________|

    alone..                                     You watch the
Eb |-----------------------------|------------------------|
Bb |-----------------------------|------------------------|
Gb |-----------------------------|---------------4--------|
Db |-----------------------------|------------------5-----|
Ab |-4--4-4-4-4--4-4--4-4-4-4--4-|-4--4-4-4-4--4-2-----7--|
Eb |-2--2-2-2-2--2-2--2-2-2-2--2-|-2--2-2-2-2--2----3--0--|
     PM_________________________________________|

    screen                                     When you're
Eb |-----------------------------|------------------------|
Bb |-----------------------------|------------------3-----|
Gb |-----------------------------|------------------------|
Db |-----------------------------|---------------5-----5--|
Ab |-4--4-4-4-4--4-4--4-4-4-4--4-|-4--4-4-4-4--4----5-----|
Eb |-2--2-2-2-2--2-2--2-2-2-2--2-|-2--2-2-2-2--2-3-----3--|
     PM_________________________________________|

   alone                                       You'd like to
Eb |-----------------------------|------------------------|
Bb |-----------------------------|------------------------|
Gb |-----------------------------|---------------4--------|
Db |-----------------------------|------------------5-----|
Ab |-4--4-4-4-4--4-4--4-4-4-4--4-|-4--4-4-4-4--4-2-----7--|
Eb |-2--2-2-2-2--2-2--2-2-2-2--2-|-2--2-2-2-2--2----3--0--|
     PM_________________________________________|

Last Chorus (1st guitar plays the same riff as the 2nd chorus but not PMed
, it also plays the bottom notes.  2nd guitar plays the F#5 chords one octave
higher and plays it only once at the start of each bar.  It also plays
the top notes at the end of each 2nd bars.

Eb |---------------------------------|---------------------------------|
Bb |---------------------------------|---------------------------------|
Gb |---------------------------------|---------------------------------|
Db |---------5---------------5-------|---------5-------5-------5-------|
Ab |---------5---------------5-------|---------5-------5-------5-------|
Eb |-2-2-2-2-3---2-2-2-2-2-2-3---2-2-|-2-2-2-2-3---2-2-3---2-2-3---2-2-|
     PM_____|    PM_________|    PM___________|   PM__|   PM__|   PM__|

Eb |---------------------------------|---------------------------------|
Bb |---------------------------------|---------------------------------|
Gb |---------------------------------|---------------------------------|
Db |---------5---------------5-------|---------5---------------5-------|
Ab |---------5---------------5-------|---------5---------------5-------|
Eb |-2-2-2-2-3---2-2-2-2-2-2-3---2-2-|-2-2-2-2-3---2-2-2-2-2-2-3-------|
     PM_____|    PM_________|    PM___________|    PM_________|


-----

Last updated : February 17th, 1998

Please e-mail me any corrections or extras.

Transcribe by Steve "TABAC" Begin
(sbegin@videotron.ca)

See latest version at : http://pages.infinit.net/begin/hanker/tabs.htm
Comments