Hank Williams Jr - Jambalaya Chords & Tabs

 

Hank Williams Jr Chords & Tabs

Version: 1 Type: Tab 0 ratings
1 star 2 stars 3 stars 4 stars 5 stars
comments

Jambalaya Tab

JAMBALAYA ON THE BAYOU
by Hank Williams Sr  1952
this is the way I do Jambalaya Key [C]                        
 
[C] Goodbye, joe, me gotta go, me oh my [G7] oh.
Me gotta go, pole the pirogue down the [C] bayou.
My yvonne, the sweetest one, me oh [G7] my oh.
Son of a gun, we'll have big fun on the [C] bayou.     
jambalaya and a crawfish pie and fillet [G7] gumbo   
Cause tonight I'm gonna see my ma cher [C] amio.      
Pick guitar, fill fruit jar and be [G7] gayo,
Son of a gun, we'll have big fun on the [C] bayou.
[ Tab from: http://www.guitartabs.cc/tabs/h/hank_williams_jr/jambalaya_tab.html ]
1e|-------------------------------------------|
2B|-------------------------------------------|
3G|-------0---2------0----2------0--------0---|
4D|---2----------2-----------2-------0--------|
5A|-------------------------------------------|
6E|-------------------------------------------|
    
1e|-------------------------------------------|
2B|-------------------------------------------|
3G|---0---0---4---4---2---0---2---0---0-------|
4D|---------------------------------------2---|
5A|-------------------------------------------|
6E|-------------------------------------------|
 
1e|-------------------------------------------|
2B|-------------------------------------------|
3G|---5---5---5---2---0----5-^-2----0---------|
4D|-------------------------------------0-----|
5A|-------------------------------------------|
6E|-------------------------------------------|

 
1e|---------------------------------------------------|
2B|---------------------------------------------------|
3G|---0---0---0---4---4---2---0---0h2---0---0---------|
4D|----------------------------------------------0----|
5A|---------------------------------------------------|
6E|---------------------------------------------------|


Thibodaux, Fontaineaux, the place is [G7] buzzin',
Kinfolk come to see Yvonne by the dozen.
We dress in style and go hog wild, me oh my oh.
Son of a gun, we'll have big fun on the bayou.     
Well jambalaya and a crawfish pie and fillet gumbo    
Cause tonight i'm gonna see my ma cher amio.      
Pick guitar, fill fruit jar and be gayo,
Son of a gun, we'll have big fun on the bayou.
   
Well jambalaya and a crawfish pie and fillet gumbo  
Cause tonight i'm gonna see my ma cher amio.   
We dress in style and go hog wild, me oh my oh.  
Son of a gun, we'll have big fun on the bayou.
Comments