Hangnail - Friendly Advice Chords & Tabs

 

Friendly Advice Chords & Tabs

Hangnail Chords & Tabs

Version: 1 Type: Tab 0 ratings
1 star 2 stars 3 stars 4 stars 5 stars
comments

Friendly Advice Tab

   
Hangnail, Friendly Advice.
 Tabbed by Praetor Jeff, faceoff3840@msn.com.
  
Hangnail is a very good punk band that noone has ever heard of but i really like them so go buy their cd, or download this song off aimster or something.

The first part goes:

------------------------------------------------------
------------------------------------------------------
------------------------------------------------------
--0-0-7-0-8-7-0-7-0-10-8-7-8-7-0-7--------------------
------------------------------------------------------
------------------------------------------------------
do that twice then:
[ Tab from: http://www.guitartabs.cc/tabs/h/hangnail/friendly_advice_tab.html ]
e-----------------------------------------------------
B-----------------------------------------------------
G-----------------------------------------------------
D-0-0-7-0-8-7-0-7-0-0-7-8-7-0-0-0-7-0-8-7-0-7-0-0-7-0-8-7-0
A-----------------------------------------------------
E-----------------------------------------------------

That part is played really fast. you have to listen to the song to get it.

Then the chords go:

------------------------------------------------------
------------------------------------------------------
-----------11-11--7-7-9-------------------------------
7-7-7-7-11--9-9---5-5-7--11--9------------------------
7-7-7-7-11--9-9---5-5-7--11--9------------------------
5-5-5-5--9---------------9---7------------------------

then repeat that. thats the chorus too. and for the verse its those same chords palm muted 
and played two at a time. 

-jeff 
:: Ultimate Guitar Archive :: 
http://www.ultimate-guitar.com 



Comments