Hangnail - All That You Wanted Chords & Tabs

 

All That You Wanted Chords & Tabs

Hangnail Chords & Tabs

Version: 1 Type: Tab 0 ratings
1 star 2 stars 3 stars 4 stars 5 stars
comments

All That You Wanted Tab

ALL THAT YOU WANTED- bridge

Tabbed by: vasuveas
E-mail: vasuveas@hotmail.com

Hello people i couldnt find a tab for this anywhere so i did it myself. i think this is
posably the best Hangnail riff. its the bridge. it is very hard, hanganail have such
good guitarists. i slowed it down using a prog and would be only to happy to send you
the slowed down clip on request. This is my first tab so please post comments/corrections. 
Gd luck ;)

[ Tab from: http://www.guitartabs.cc/tabs/h/hangnail/all_that_you_wanted_tab.html ]
E|---------------------------------|x4
B|-----7-----7---------8-----8-----|x4
G|---7-----7-----7---7-----7-----7-|x4
D|-9-----9-----9---9-----9-----9---|x4
A|---------------------------------|x4
E|---------------------------------|x4
                                                                 _
E|--------------------------------------------------------------| |x5
B|------------------------7---8------5-xx-5-------5-----7---8---| |x5
G|-7--------7-------9-------------6--6-xx---6---6---6-----------| |x5
D|-9----9-------9-----9---------7-7--7-xx-----7-------7---7---7-| |x5
A|-9------9---9---9-----9---9-----7-----------------------------| |x5
E|--------------------------------------------------------------| |x5
                                                                  |x5
E|----5-xx-5-------5-----3---2----------------------------------| |x5
B|-3--3-xx---3---3---3-------3------3-----3---------2-----2-----| |x5
G|-4--4-xx-----4-------4---4---4------4-----4---------2-----2---| |x5
D|-5------------------------------------4-----4-2-------2-----2-| |x5
A|-------------------------------2--------------0---------------| |x5
E|--------------------------------------------------------------|_|x5
Comments