Hammerfall - The Way Of The Warrior Lead Chords & Tabs

 

The Way Of The Warrior Lead Chords & Tabs

Hammerfall Chords & Tabs

Version: 1 Type: Tab 0 ratings
1 star 2 stars 3 stars 4 stars 5 stars
comments

The Way Of The Warrior Lead Tab

                              The Way of the Warrior                                 


                                         Oscar Dronjak, Joacim Cans, Jesper Strömblad
Lead guitar
Tabbed by Martin Kahnberg (aka Owain ap Nghân)
kahnberg@freemail.hammerfall.net / owain@home.se
http://www.geocities.com/kahnberg / http://www.geocities.com/owainse


    intro / riff 1 (actually the same 8 bars played 3 times)
D#||--------------------------|----------------------------|
A#||--5p0h5p0h5p0h7p0h7p0h7p0h|--8p0h10p0h7p0h8p0h10p0h7p0h|
F#||--------------------------|----------------------------|
C#||--------------------------|----------------------------|
G#||--------------------------|----------------------------|
D#||--------------------------|----------------------------|


                                                                                   
--------------------------|----------------------------|--5p0h5p0h5p0h7p0h7p0h7p0h|
--5p0h5p0h5p0h7p0h7p0h7p0h|--8p0h10p0h7p0h8p0h10p0h7p0-|--------------------------|
--------------------------|----------------------------|--------------------------|
--------------------------|----------------------------|--------------------------|
--------------------------|----------------------------|--------------------------|
--------------------------|----------------------------|--------------------------|


                                                                                     
--8p0h10p0h7p0h8p0h10p0h7p0h|--5p0h5p0h5p0h7p0h7p0h7p0-|--8p0h10p0h7p0h8p0h10p0h7p0-|
----------------------------|--------------------------|----------------------------|
----------------------------|--------------------------|----------------------------|
----------------------------|--------------------------|----------------------------|
----------------------------|--------------------------|----------------------------|
----------------------------|--------------------------|----------------------------|


                                                                                   
--------------------------|----------------------------|--------------------------|
--5p0h5p0h5p0h7p0h7p0h7p0h|--8p0h10p0h7p0h8p0h10p0h7p0h|--5p0h5p0h5p0h7p0h7p0h7p0h|
--------------------------|----------------------------|--------------------------|
--------------------------|----------------------------|--------------------------|
--------------------------|----------------------------|--------------------------|
--------------------------|----------------------------|--------------------------|


                                                                                     
----------------------------|--5p0h5p0h5p0h7p0h7p0h7p0h|--8p0h10p0h7p0h8p0h10p0h7p0h|
--8p0h10p0h7p0h8p0h10p0h7p0-|--------------------------|----------------------------|
----------------------------|--------------------------|----------------------------|
----------------------------|--------------------------|----------------------------|
----------------------------|--------------------------|----------------------------|
----------------------------|--------------------------|----------------------------|


                                                                                   
--5p0h5p0h5p0h7p0h7p0h7p0-|--8p0h10p0h7p0h8p0h10p0h7p0-|--------------------------|
--------------------------|----------------------------|--5p0h5p0h5p0h7p0h7p0h7p0h|
--------------------------|----------------------------|--------------------------|
--------------------------|----------------------------|--------------------------|
--------------------------|----------------------------|--------------------------|
--------------------------|----------------------------|--------------------------|


                                                                                     
----------------------------|--------------------------|----------------------------|
--8p0h10p0h7p0h8p0h10p0h7p0h|--5p0h5p0h5p0h7p0h7p0h7p0h|--8p0h10p0h7p0h8p0h10p0h7p0-|
----------------------------|--------------------------|----------------------------|
----------------------------|--------------------------|----------------------------|
----------------------------|--------------------------|----------------------------|
----------------------------|--------------------------|----------------------------|


                                                                                   
--5p0h5p0h5p0h7p0h7p0h7p0h|--8p0h10p0h7p0h8p0h10p0h7p0h|--5p0h5p0h5p0h7p0h7p0h7p0-|
--------------------------|----------------------------|--------------------------|
--------------------------|----------------------------|--------------------------|
--------------------------|----------------------------|--------------------------|
--------------------------|----------------------------|--------------------------|
--------------------------|----------------------------|--------------------------|


                              verse 1                                      
--8p0h10p0h7p0h8p0h10p0h7p0-||---------------------|----------------------|
----------------------------||---------------------|----------------------|
----------------------------||*--------------------|----------------------|
----------------------------||*--9--------9--------|--9--7------7---------|
----------------------------||---7--7--7--7--7--7--|--------10-----10--9--|
----------------------------||---------------------|----------------------|


                                        3x    bridge                 chorus         
--------------------|-------------------||--|--|--|--|--|--|--|--|--|--|--|--|--|--|
--------------------|-------------------||--|--|--|--|--|--|--|--|--|--|--|--|--|--|
--------------------|------------------*||--|--|--|--|--|--|--|--|--|--|--|--|--|--|
--9--------9--------|--9----10--7------*||--|--|--|--|--|--|--|--|--|--|--|--|--|--|
--7--7--7--7--7--7--|-------------------||--|--|--|--|--|--|--|--|--|--|--|--|--|--|
--------------------|-------------------||--|--|--|--|--|--|--|--|--|--|--|--|--|--|


                                 riff 1                     
--|--|--|--|--|--|--|--|--|--|--|--------------------------|
--|--|--|--|--|--|--|--|--|--|--|--5p0h5p0h5p0h7p0h7p0h7p0h|
--|--|--|--|--|--|--|--|--|--|--|--------------------------|
--|--|--|--|--|--|--|--|--|--|--|--------------------------|
--|--|--|--|--|--|--|--|--|--|--|--------------------------|
--|--|--|--|--|--|--|--|--|--|--|--------------------------|


                                                                                     
----------------------------|--------------------------|----------------------------|
--8p0h10p0h7p0h8p0h10p0h7p0h|--5p0h5p0h5p0h7p0h7p0h7p0h|--8p0h10p0h7p0h8p0h10p0h7p0-|
----------------------------|--------------------------|----------------------------|
----------------------------|--------------------------|----------------------------|
----------------------------|--------------------------|----------------------------|
----------------------------|--------------------------|----------------------------|


                                                                                   
--5p0h5p0h5p0h7p0h7p0h7p0h|--8p0h10p0h7p0h8p0h10p0h7p0h|--5p0h5p0h5p0h7p0h7p0h7p0-|
--------------------------|----------------------------|--------------------------|
--------------------------|----------------------------|--------------------------|
--------------------------|----------------------------|--------------------------|
--------------------------|----------------------------|--------------------------|
--------------------------|----------------------------|--------------------------|


                              verse 2                                      
--8p0h10p0h7p0h8p0h10p0h7p0-||---------------------|----------------------|
----------------------------||---------------------|----------------------|
----------------------------||*--------------------|----------------------|
----------------------------||*--9--------9--------|--9--7------7---------|
----------------------------||---7--7--7--7--7--7--|--------10-----10--9--|
----------------------------||---------------------|----------------------|


                                        3x   bridge                  chorus        
--------------------|-------------------||--|--|--|--|--|--|--|--|--|--|--|--|--|--|
--------------------|-------------------||--|--|--|--|--|--|--|--|--|--|--|--|--|--|
--------------------|------------------*||--|--|--|--|--|--|--|--|--|--|--|--|--|--|
--9--------9--------|--9----10--7------*||--|--|--|--|--|--|--|--|--|--|--|--|--|--|
--7--7--7--7--7--7--|-------------------||--|--|--|--|--|--|--|--|--|--|--|--|--|--|
--------------------|-------------------||--|--|--|--|--|--|--|--|--|--|--|--|--|--|

[ Tab from: http://www.guitartabs.cc/tabs/h/hammerfall/the_way_of_the_warrior_lead_tab.html ]
                                       solo (this is as close as I manage)           
--|--|--|--|--|--|--|--|--|--|--|--|--|----------------|----------------------|
--|--|--|--|--|--|--|--|--|--|--|--|--|----------------|----------------------|
--|--|--|--|--|--|--|--|--|--|--|--|--|--13~-----------|------11------11--13--|
--|--|--|--|--|--|--|--|--|--|--|--|--|----------------|----------14----------|
--|--|--|--|--|--|--|--|--|--|--|--|--|----------------|----------------------|
--|--|--|--|--|--|--|--|--|--|--|--|--|----------------|----------------------|


                                                                             
--------------------------|--------------------------|----------------------|
--------------------------|--------------------------|----------------------|
--13--11------11----------|--------------------------|------------------13--|
----------14------14--13--|--14--13--11--13--11------|--11------11--14------|
--------------------------|----------------------14--|----------------------|
--------------------------|--------------------------|----------------------|


 1 arr for 2 guitars (actually dubbed)                                                    
----------------|------------11--12--|--12--11------11----------|
--14~-----------|--------14--19--21--|--21--19--14--19--14--12--|
--21(fade)------|--------21----------|----------21------21--20--|
----------------|--------------------|--------------------------|
----------------|--------------------|--------------------------|
----------------|--------------------|--------------------------|


                                                               
--11~---------12p11-|--------------------|--16----------------|
--19~---------21p19-|--14--------14/-17--|------------14--17--|
--------------------|--21----------------|--------------------|
--------------------|--------------------|--------------------|
--------------------|--------------------|--------------------|
--------------------|--------------------|--------------------|


(uncertain)                                                       
--19--14------17--14------|--16----------14----------|--14~-----------|
----------17----------14--|------14--17------12--16--|----------------|
--------------------------|--------------------------|----------------|
--------------------------|--------------------------|----------------|
--------------------------|--------------------------|----------------|
--------------------------|--------------------------|----------------|


                                                                             
--14r-------14b---|------------------|--19h21p19h21p17h19p17h19p16h17p16h17-|
------------------|----------14--17--|--------------------------------------|
------------------|------------------|--------------------------------------|
------------------|------------------|--------------------------------------|
------------------|------------------|--------------------------------------|
------------------|------------------|--------------------------------------|


                       riff 2                                                
----------------------|--------------------------|--------------------------|
--17h19p17------------|--------------------------|--------------------------|
-----------19r--------|--21------------------21--|--19------------------19--|
----------------------|------22--19------19------|------21------------------|
----------------------|--------------19----------|----------22------22------|
----------------------|--------------------------|--------------22----------|


                                                                                 
--------------------------|--------------------------|--------------------------|
--------------------------|--------------------------|--------------------------|
--22--19------19--22--19--|--21----------19----------|--21------------------21--|
----------19--------------|------22--19------21------|------22--19------19------|
--------------------------|----------------------22--|--------------19----------|
--------------------------|--------------------------|--------------------------|


                                                      (dubbed)                       
--------------------------|--------------------------|----------------------||---|--|
--------------------------|--------------------------|----------------------||---|--|
--19----------------------|--------------------------|--17--21--19--17------||*--|--|
------21--------------21--|--22--19----------22--21--|--19--22--21--19------||*--|--|
----------22------22------|----------19--20----------|----------------------||---|--|
--------------22----------|--------------------------|----------------------||---|--|


stick               riff 2                                                 
--|--|--|--|--|---||---------------------------|--------------------------|
--|--|--|--|--|---||---------------------------|--------------------------|
--|--|--|--|--|--*||*--21------------------21--|--19------------------19--|
--|--|--|--|--|--*||*------22--19------19------|------21------------------|
--|--|--|--|--|---||---------------19----------|----------22------22------|
--|--|--|--|--|---||---------------------------|--------------22----------|


                                                                                 
--------------------------|--------------------------|--------------------------|
--------------------------|--------------------------|--------------------------|
--22--19------19--22--19--|--21----------19----------|--21------------------21--|
----------19--------------|------22--19------21------|------22--19------19------|
--------------------------|----------------------22--|--------------19----------|
--------------------------|--------------------------|--------------------------|


                                                                               
--------------------------|--------------------------|-----------------------||
--------------------------|--------------------------|-----------------------||
--19----------------------|--------------------------|----------------------*||
------21--------------21--|--22--19----------22--21--|--19--22--21--19------*||
----------22------22------|----------19--20----------|-----------------------||
--------------22----------|--------------------------|-----------------------||


                           (dubbed)                verse 3             
--------------------------|--------------17------||---------------------|
--------------------------|------17--17----------||---------------------|
--------------------------|--17--17--19--17------||*--------------------|
--22--19----------22--21--|--19--22--21--19------||*--9--------9--------|
----------19--20----------|----------------------||---7--7--7--7--7--7--|
--------------------------|----------------------||---------------------|


                                                               3x bridge          
----------------------|--------------------|-------------------||---|--|--|--|--|--|
----------------------|--------------------|-------------------||---|--|--|--|--|--|
----------------------|--------------------|------------------*||*--|--|--|--|--|--|
--9--7------7---------|--9--------9--------|--9----10--7------*||*--|--|--|--|--|--|
--------10-----10--9--|--7--7--7--7--7--7--|-------------------||---|--|--|--|--|--|
----------------------|--------------------|-------------------||---|--|--|--|--|--|


           chorus x2                                                              
--|--|---||--|--|--|--|--|--|--|--|--|--|--|--|--|--|--|--|--|--|--|--|--|--|--|--|
--|--|---||--|--|--|--|--|--|--|--|--|--|--|--|--|--|--|--|--|--|--|--|--|--|--|--|
--|--|--*||--|--|--|--|--|--|--|--|--|--|--|--|--|--|--|--|--|--|--|--|--|--|--|--|
--|--|--*||--|--|--|--|--|--|--|--|--|--|--|--|--|--|--|--|--|--|--|--|--|--|--|--|
--|--|---||--|--|--|--|--|--|--|--|--|--|--|--|--|--|--|--|--|--|--|--|--|--|--|--|
--|--|---||--|--|--|--|--|--|--|--|--|--|--|--|--|--|--|--|--|--|--|--|--|--|--|--|


                        outro / riff 1 (first 4 bars only)                               
--|--|--|--|--|--|--|--|--------------------------|----------------------------|
--|--|--|--|--|--|--|--|--5p0h5p0h5p0h7p0h7p0h7p0h|--8p0h10p0h7p0h8p0h10p0h7p0h|
--|--|--|--|--|--|--|--|--------------------------|----------------------------|
--|--|--|--|--|--|--|--|--------------------------|----------------------------|
--|--|--|--|--|--|--|--|--------------------------|----------------------------|
--|--|--|--|--|--|--|--|--------------------------|----------------------------|


                                                                            
--------------------------|----------------------------|------------------||
--5p0h5p0h5p0h7p0h7p0h7p0h|--8p0h10p0h7p0h8p0h10p0h7p0-|------------------||
--------------------------|----------------------------|--9--9--7--9------||
--------------------------|----------------------------|--9--9--7--9------||
--------------------------|----------------------------|--7--7--5--7------||
--------------------------|----------------------------|--0--0--0--0------||


Comments