Hammerfall - Templars Of Steel Chords & Tabs

 

Templars Of Steel Chords & Tabs

Hammerfall Chords & Tabs

Version: 1 Type: Bass Tab 0 ratings
1 star 2 stars 3 stars 4 stars 5 stars
comments

Templars Of Steel Bass Tab

   
Gb|------------------------------------------------|
Db|------------------------------------------------|
Ab|-7-7---------------8-5-7-7----------------------|
Eb|-----0--0-0-0--0-0---------0--0-0-0--0-0-0--0-0-|
Fig2
Gb|-------------------------------|
Db|-------------------------------|
Ab|-7-7---------------8-7-5-7-5-3-|
Eb|-----0--0-0-0--0-0-------------|

repeat Fig1

Fig3
Gb|---------------------------------|
Db|---------------------------------|
Ab|-7-7---------------8-7-5-7-5-3-2-|
Eb|-----0--0-0-0--0-0---------------|


Pre-Chorus
Gb|-------------------------------------------------------------------------------------|
Db|-------------------------------------------------------------------------------------|
Ab|-------------------------------------------------------------------------------------|
Eb|-5--5-5-5--5-5-1--1-1-1--1-1-5--5-5-5--5-5-5*--8--8-8-8--8-8-3--3-3-3---3-3-7-7-8-10-|


Chorus
Fig1
Gb|---------------------------|
Db|---------------------------|
Ab|-7-7---3-3---10-10---5--5--|
Eb|---------------------------|
Fig2
Gb|-----------------------------------------------|
Db|-----------------------------------------------|
Ab|-7-7---3-3---10--10-10-10--10-10-5--5-5-5--5-5-|
Eb|-----------------------------------------------|

repeat Fig1

Fig3
Gb|----------------|
Db|----------------|
Ab|-7*---3*---5*---|
Eb|----------------|


Interlude
Fig1
Gb|---------------------------------------------------------|
Db|---------------------------------------------------------|
Ab|---------------------------------------------------------|
Eb|-7--7-7-7--7-7-7--7-7-7--7-7-3--3-3-3-3/5---8-7-10-9-7-6-|
Fig2
Gb|-----------------------------------------------------------|
Db|-----------------------------------------------------------|
Ab|-----------------------------------------------------------|
Eb|-7--7-7-7--7-7-7--7-7-7--7-7-10--10-10-10-103*---8-7-8-10-|

repeat Fig1

Fig3
Gb|-------------------------------------------------------------|
Db|-------------------------------------------------------------|
Ab|-------------------------------------------------------------|
Eb|-7--7-7-7--7-7-7--7-7-7--7-7-10--10-10-10-103*---6-8-7-8-10-|

then                      x3
Gb|----------------------|  |-----------------|
Db|----------------------|  |-----------------|
Ab|----------------------|  |-----------------|
Eb|-9*---7*---10*---8*---|  |-9*---7*---10*---|


Chorus2
Fig1
Gb|-----------------------------|
Db|-----------------------------|
Ab|-10-10---6-6---13-13---8--8--|
Eb|-----------------------------|
Fig2
Gb|-------------------------------------------------|
Db|-------------------------------------------------|
Ab|-10-10---6-6---13--13-13-13--13-13-8--8-8-8--8-8-|
Eb|-------------------------------------------------|

repeat Fig1

Fig3                 x2
Gb|-----------------|
Db|-----------------|
Ab|-10*---6*---8*---|
Eb|-----------------|



structure:
Intro (no bass)
Pre-Verse
Verse
Pre-Chorus
Chorus
Pre-Verse
Verse
Pre-Chorus
Chorus
Chorus Fig3
Interlude
Chorus
Chorus2


_______________________________________________________________________
GUITAR TAB (6-STRING GUITAR)

GUITAR1

Tune down 1/2 step (Eb,Ab,Db,Gb,a(Bb),Eb)

Intro                                           x2
eb|---------------------------------------------|
Bb|---------------------------------------------|
Ab|--------9-9---10-7-9-9---9-9---10-9-7-9-7-5*-|
Db|--------9-9---10-7-9-9---9-9---10-9-7-9-7-5*-|
Ab|-Rest---7-7--- 8-5-7-7---7-7--- 8-7-5-7-5-3*-|
Eb|---------------------------------------------|

eb|---------------------------------------------|
Bb|---------------------------------------------|
Gb|-9-9---10-7-9-9----------9-9---10-9-7-9-7-5*-|
Db|-9-9---10-7-9-9----------9-9---10-9-7-9-7-5*-|
Ab|-7-7--- 8-5-7-7---Rest---7-7--- 8-7-5-7-5-3*-|
Eb|---------------------------------------------|

eb|----------------------------------------------|
Bb|----------------------------------------------|
Gb|-9-9---10-7-9-9----------9-9---10-9-7-9-7-5-4-|
Db|-9-9---10-7-9-9----------9-9---10-9-7-9-7-5-4-|
Ab|-7-7--- 8-5-7-7---Rest---7-7--- 8-7-5-7-5-3-2-|
Eb|----------------------------------------------|


Pre-Verse
Fig1
eb|-------------------------------------------------|
Bb|-------------------------------------------------|
Gb|-9-9---------------10-7-9-9----------------------|
Db|-9-9---------------10-7-9-9----------------------|
Ab|-7-7--------------- 8-5-7-7----------------------|
Eb|-----0--0-0-0--0-0----------0--0-0-0--0-0-0--0-0-|
        ^-----------^          ^------------------^   p.m.
Fig2
eb|---------------------------------|
Bb|---------------------------------|
Gb|-9-9---------------10-9-7-9-7-5*-|
Db|-9-9---------------10-9-7-9-7-5*-|
Ab|-7-7--------------- 8-7-5-7-5-3*-|
Eb|-----0--0-0-0--0-0---------------|
        ^-----------^                 p.m.
repeat Fig1

Fig3
eb|----------------------------------|
Bb|----------------------------------|
Gb|-9-9---------------10-9-7-9-7-5-4-|
Db|-9-9---------------10-9-7-9-7-5-4-|
Ab|-7-7--------------- 8-7-5-7-5-3-2-|
Eb|-----0--0-0-0--0-0----------------|
        ^-----------^                 p.m.

Verse
Fig1
eb|-------------------------------------------------|
Bb|-------------------------------------------------|
Gb|-9-9---------------10-7-9-9----------------------|
Db|-9-9---------------10-7-9-9----------------------|
Ab|-7-7--------------- 8-5-7-7----------------------|
Eb|-----0--0-0-0--0-0----------0--0-0-0--0-0-0--0-0-|
        ^-----------^          ^------------------^   p.m.
Fig2
eb|---------------------------------|
Bb|---------------------------------|
Gb|-9-9---------------10-9-7-9-7-5*-|
Db|-9-9---------------10-9-7-9-7-5*-|
Ab|-7-7--------------- 8-7-5-7-5-3*-|
Eb|-----0--0-0-0--0-0---------------|
        ^-----------^                 p.m.
repeat Fig1

Fig3
eb|----------------------------------|
Bb|----------------------------------|
Gb|-9-9---------------10-9-7-9-7-5-4-|
Db|-9-9---------------10-9-7-9-7-5-4-|
Ab|-7-7--------------- 8-7-5-7-5-3-2-|
Eb|-----0--0-0-0--0-0----------------|
        ^-----------^                  p.m.

Pre-Chorus
eb|---------------------------------------|
Bb|---------------------------------------|
Gb|---------------------------------------|
Db|-7--3--7-----7-----7--10--5--9-9-10-12-|
Ab|-7--3--7-----7-----7--10--5--9-9-10-12-|
Eb|-5--1--5-5-5-5-5-5-5-- 8--3--7-7--8-10-|
            ^-^   ^-^                       p.m.

Chorus
Fig1
eb|---------------------------|
Bb|---------------------------|
Gb|-9-9---5-5---12-12---7--7--|
Db|-9-9---5-5---12-12---7--7--|
Ab|-7-7---3-3---10-10---5--5--|
Eb|---------------------------|
Fig2
eb|-------------------------------------------|
Bb|-------------------------------------------|
Gb|-9-9---5-5---12-------12-------7-----7-----|
Db|-9-9---5-5---12-------12-------7-----7-----|
Ab|-7-7---3-3---10-10-10-10-10-10-5-5-5-5-5-5-|
Eb|-------------------------------------------|
                   ^---^    ^---^   ^-^   ^-^   p.m.
repeat Fig1

Fig3
eb|----------------|
Bb|----------------|
Gb|-9*---5*---7*---|
Db|-9*---5*---7*---|
Ab|-7*---3*---5*---|
Eb|----------------|

[ Tab from: http://www.guitartabs.cc/tabs/h/hammerfall/templars_of_steel_btab.html ]
Interlude                 x3
eb|----------------------|  |---------------|
Bb|----------------------|  |---------------|
Gb|----------------------|  |---------------|
Db|----------------------|  |---------------|
Ab|----------------------|  |---------------|
Eb|-9*---7*---10*---8*---|  |-9*---7*---10*-|


Chorus2
Fig1
eb|-------------------------------|
Bb|-------------------------------|
Gb|-12-12---8-8---15-15---10--10--|
Db|-12-12---8-8---15-15---10--10--|
Ab|-10-10---6-6---13-13--- 8-- 8--|
Eb|-------------------------------|
Fig2
eb|---------------------------------------------|
Bb|---------------------------------------------|
Gb|-12-12---8-8---15-------15------10----10-----|
Db|-12-12---8-8---15-------15------10----10-----|
Ab|-10-10---6-6---13-13-13-13 13-13-8-8-8-8-8-8-|
Eb|---------------------------------------------|
                     ^---^    ^---^   ^-^   ^-^   p.m.
repeat Fig1

Fig3                  x2
eb|------------------|
Bb|------------------|
Gb|-12*---8*---10*---|
Db|-12*---8*---10*---|
Ab|-10*---6*--- 8*---|
Eb|------------------|



structure:
Intro
Pre-Verse
Verse
Chorus
Pre-Verse
Verse
Pre-Chorus
Chorus
Chorus Fig3
Solo
Interlude
Chorus
Chorus2


_______________________________________________________________________
GUITAR 2

Tune down 1/2 step (Eb,Ab,Db,Gb,a(Bb),Eb)

Intro                                          x2
eb|-------------------------------------------|
Bb|-------------------------------------------|
Gb|-------------------------------------------|
Db|-------------------------------------------|
Ab|-Rest--------------------------------------|
b|--------------------------------------------|
                                                  x2
eb|----------------------------------------------|
Bb|----------------------------------------------|
Gb|----------------------------------------------|
Db|-----------------------9---------------------|
Ab|-Rest-----------------------------------------|
Eb|----------------7-8-9-0-----------------------|


Pre-Verse
Fig1
eb|---------------------------------------------|
Bb|---------------------------------------------|
Gb|-9-9---------------10-7-9-9----------------9|
Db|-9-9---------------10-7-9-9------------------|
Ab|-7-7--------------- 8-5-7-7------------------|
Eb|-----0--0-0-0--0-0----------0--0-0-7-8-9-0---|
        ^-----------^          ^------------^      p.m.
Fig2
eb|---------------------------------|
Bb|---------------------------------|
Gb|-9-9---------------10-9-7-9-7-5*-|
Db|-9-9---------------10-9-7-9-7-5*-|
Ab|-7-7--------------- 8-7-5-7-5-3*-|
Eb|-----0--0-0-0--0-0---------------|
        ^-----------^                 p.m.
repeat Fig1

Fig3
eb|----------------------------------|
Bb|----------------------------------|
Gb|-9-9---------------10-9-7-9-7-5-4-|
Db|-9-9---------------10-9-7-9-7-5-4-|
Ab|-7-7--------------- 8-7-5-7-5-3-2-|
Eb|-----0--0-0-0--0-0----------------|
        ^-----------^                 p.m.

Verse
Fig1
eb|-------------------------------------------------|
Bb|-------------------------------------------------|
Gb|-9-9---------------10-7-9-9----------------------|
Db|-9-9---------------10-7-9-9----------------------|
Ab|-7-7--------------- 8-5-7-7----------------------|
Eb|-----0--0-0-0--0-0----------0--0-0-0--0-0-0--0-0-|
        ^-----------^          ^------------------^   p.m.
Fig2
eb|---------------------------------|
Bb|---------------------------------|
Gb|-9-9---------------10-9-7-9-7-5*-|
Db|-9-9---------------10-9-7-9-7-5*-|
Ab|-7-7--------------- 8-7-5-7-5-3*-|
Eb|-----0--0-0-0--0-0---------------|
        ^-----------^                 p.m.
repeat Fig1

Fig3
eb|----------------------------------|
Bb|----------------------------------|
Gb|-9-9---------------10-9-7-9-7-5-4-|
Db|-9-9---------------10-9-7-9-7-5-4-|
Ab|-7-7--------------- 8-7-5-7-5-3-2-|
Eb|-----0--0-0-0--0-0----------------|
        ^-----------^                  p.m.

Pre-Chorus
eb|---------------------------------------|
Bb|---------------------------------------|
Gb|---------------------------------------|
Db|-7--3--7-----7-----7--10--5--9-9-10-12-|
Ab|-7--3--7-----7-----7--10--5--9-9-10-12-|
Eb|-5--1--5-5-5-5-5-5-5-- 8--3--7-7--8-10-|
            ^-^   ^-^                       p.m.

Chorus
Fig1
eb|---------------------------|
Bb|---------------------------|
Gb|-9-9---5-5---12-12---7--7--|
Db|-9-9---5-5---12-12---7--7--|
Ab|-7-7---3-3---10-10---5--5--|
Eb|---------------------------|
Fig2
eb|-------------------------------------------|
Bb|-------------------------------------------|
Gb|-9-9---5-5---12-------12-------7-----7-----|
Db|-9-9---5-5---12-------12-------7-----7-----|
Ab|-7-7---3-3---10-10-10-10-10-10-5-5-5-5-5-5-|
Eb|-------------------------------------------|
                   ^---^    ^---^   ^-^   ^-^   p.m.
repeat Fig1

Fig3
eb|----------------|
Bb|----------------|
Gb|-9*---5*---7*---|
Db|-9*---5*---7*---|
Ab|-7*---3*---5*---|
Eb|----------------|


Interlude
Fig1
eb|-----------------------------------------------------|
Bb|-----------------------------------------------------|
Gb|-----------------------------------------------------|
Db|-9-----9-----9-----9-----5-----5---7*----------------|
Ab|-9-----9-----9-----9-----5-----5---7*----------------|
Eb|-7-7-7-7-7-7-7-7-7-7-7-7-3-3-3-3-3-5*---8-7-10-9-7-6-|
Fig2  ^-^   ^-^   ^-^   ^-^   ^-^   ^      ^----------^   p.m.
eb|--------------------------------------------------------|
Bb|--------------------------------------------------------|
Gb|--------------------------------------------------------|
Db|-9-----9-----9-----9-----12-------12----5*--------------|
Ab|-9-----9-----9-----9-----12-------12----5*--------------|
Eb|-7-7-7-7-7-7-7-7-7-7-7-7-10-10-10-10-103*-----8-7-8-10-|
      ^-^   ^-^   ^-^   ^-^    ^---^     ^        ^------^   p.m.
repeat Fig1

Fig3
eb|-----------------------------------------------------|
Bb|-----------------------------------------------------|
Gb|-----------------------------------------------------|
Db|-9-----9-----9-----9-----5-----5---7*----------------|
Ab|-9-----9-----9-----9-----5-----5---7*----------------|
Eb|-7-7-7-7-7-7-7-7-7-7-7-7-3-3-3-3-3-5*---8-7-10-9-7-6-|
      ^-^   ^-^   ^-^   ^-^   ^-^   ^      ^----------^   p.m.
then                      x3
eb|----------------------|  |---------------|
Bb|----------------------|  |---------------|
Gb|----------------------|  |---------------|
Db|----------------------|  |---------------|
Ab|----------------------|  |---------------|
Eb|-9*---7*---10*---8*---|  |-9*---7*---10*-|


Chorus2
Fig1
eb|-------------------------------|
Bb|-------------------------------|
Gb|-12-12---8-8---15-15---10--10--|
Db|-12-12---8-8---15-15---10--10--|
Ab|-10-10---6-6---13-13--- 8-- 8--|
Eb|-------------------------------|
Fig2
eb|---------------------------------------------|
Bb|---------------------------------------------|
Gb|-12-12---8-8---15-------15------10----10-----|
Db|-12-12---8-8---15-------15------10----10-----|
Ab|-10-10---6-6---13-13-13-13 13-13-8-8-8-8-8-8-|
Eb|---------------------------------------------|
                     ^---^    ^---^   ^-^   ^-^   p.m.
repeat Fig1

Fig3                  x2
eb|------------------|
Bb|------------------|
Gb|-12*---8*---10*---|
Db|-12*---8*---10*---|
Ab|-10*---6*--- 8*---|
Eb|------------------|


End
eb|---------------|
Bb|---------------|
Gb|---7-6-4-3-----|
Db|-----------5-5-|
Ab|-----------5-5-|
Eb|-----------3-3-|



structure:
Intro
Pre-Verse
Verse
Pre-Chorus
Chorus
Pre-Verse
Verse
Pre-Chorus
Chorus
Chorus Fig3
Interlude
Chorus
Chorus2
End
Comments