Hammerfall - Secrets Chords & Tabs

 

Secrets Chords & Tabs

Hammerfall Chords & Tabs

Version: 1 Type: Tab 0 ratings
1 star 2 stars 3 stars 4 stars 5 stars
comments

Secrets Tab

   
I am really not sure bout the tuning...I tuned it by ear... as close as I can get it to
the song. According to my tuner, these are the tunes it gave me: D#,A#,Gb,Db,G#,D#. 


Artist: Hammerfall
Album:  Chapter V-Unbent-Unbowed-Unbroken
Song:   Secrets

Intro:

D#|-0h7p0h7p0h8p0h5p0h7p0h7p0h8p0h10p0h7p0h7p0h8p0h5p0h7p0h7p0h8p0h10p0--|x4
A#|----------------------------------------------------------------------|
Gb|----------------------------------------------------------------------|
Db|----------------------------------------------------------------------|
G#|----------------------------------------------------------------------|
D#|----------------------------------------------------------------------|

D#|-0h7p0h7p0h8p0h5p0h7p0h7p0h8p0h10p0h7p0h7p0h8p0h5p0h7p0h7p0h8p0h10p0--|
A#|----------------------------------------------------------------------|
Gb|----------------------------------------------------------------------|
Db|----------------------------------------------------------------------|
G#|----------------------------------------------------------------------|
D#|----------------------------------------------------------------------|

D#|----------------------------------------------------------------------|
A#|-0h7p0h7p0h8p0h5p0h7p0h7p0h8p0h10p0h7p0h7p0h8p0h5p0h7p0h7p0h8p0h10p0--|
Gb|----------------------------------------------------------------------|
Db|----------------------------------------------------------------------|
G#|----------------------------------------------------------------------|
D#|----------------------------------------------------------------------|

D#|-0h7p0h7p0h8p0h5p0h7p0h7p0h8p0h10p0h7p0h7p0h8p0h5p0h7p0h7p0h8p0h10p0--|
A#|----------------------------------------------------------------------|
Gb|----------------------------------------------------------------------|
Db|----------------------------------------------------------------------|
G#|----------------------------------------------------------------------|
D#|----------------------------------------------------------------------|

D#|--------------|
A#|--------------|
Gb|-7-----x/-----|
Db|-7-----x/-----|
G#|-5-----x/-----|
D#|--------------|

verse:
   
D#|------------------------------------------------------------------------|
A#|------------------------------------------------------------------------|
Gb|-9-------9-------9-7-9-------9-------9-7-------------------7-9----------|
Db|-9-------9-------9-7-9-------9-------9-7-7-------7-------7-7-9----------|
G#|-7-7-7-7-7-7-7-7-7---7-7-7-7-7-7-7-7-7---6-6-6-6-6-6-6-6-6---7-7-7-7-7--|
D#|------------------------------------------------------------------------|
      . . .   . . .       . . .   . . .       . . .   . . .       . . . .
D#|---------------|
A#|---------------|
Gb|---------------|
Db|--------7-9-10-|
G#|-7-9-10--------|
D#|---------------|
     

D#|------------------------------------------------------------------------|
A#|------------------------------------------------------------------------|
Gb|-9-------9-------9-7-9-------9-------9-7-------------------7-9----------|
Db|-9-------9-------9-7-9-------9-------9-7-7-------7-------7-7-9----------|
G#|-7-7-7-7-7-7-7-7-7---7-7-7-7-7-7-7-7-7---6-6-6-6-6-6-6-6-6---7-7-7-7-7--|
D#|------------------------------------------------------------------------|
      . . .   . . .       . . .   . . .       . . .   . . .       . . . .
D#|---------------|
A#|---------------|
Gb|---------------|
Db|-10-9-7--------|
G#|--------10-9-7-|
D#|---------------|
    
D#|------------------------------------------------------------------------|
A#|------------------------------------------------------------------------|
Gb|-9-------9-------9-7-9-------9-------9-7-------------------7-9----------|
Db|-9-------9-------9-7-9-------9-------9-7-7-------7-------7-7-9----------|
G#|-7-7-7-7-7-7-7-7-7---7-7-7-7-7-7-7-7-7---6-6-6-6-6-6-6-6-6---7-7-7-7-7--|
D#|------------------------------------------------------------------------|
      . . .   . . .       . . .   . . .       . . .   . . .       . . . .
D#|---------------|
A#|---------------|
Gb|---------------|
Db|--------7-9-10-|
G#|-7-9-10--------|
D#|---------------|
      
D#|------------------------------------------------------------------------|
A#|------------------------------------------------------------------------|
Gb|-9-------9-------9-7-9-------9-------9-7-------------------7-9----------|
Db|-9-------9-------9-7-9-------9-------9-7-7-------7-------7-7-9----------|
G#|-7-7-7-7-7-7-7-7-7---7-7-7-7-7-7-7-7-7---6-6-6-6-6-6-6-6-6---7-7-7-7-7--|
D#|------------------------------------------------------------------------|
      . . .   . . .       . . .   . . .       . . .   . . .       . . . .
D#|---------------|
A#|---------------|
Gb|---------------|
Db|-10-9-7--------|
G#|--------10-9-7-|
D#|---------------|
     

D#|------------------------------------------------------------------|x2
A#|-7-0-0-0-7-0-0-0-8-0-0-0-5-0-0-0-7-0-0-0-7-0-0-0-8-0-0-0-10-0-0-0-|
Gb|------------------------------------------------------------------|
Db|------------------------------------------------------------------|
G#|------------------------------------------------------------------|
D#|------------------------------------------------------------------|

D#|-----------------------|x2
A#|-----------------------|
Gb|----4-----4-----7------|
Db|-4--4--4--4--5--7--7---|
G#|-4--2--4--2--5--5--7---|
D#|-2-----2-----3-----5---|

D#|------------------------------------------------------------------------|
A#|------------------------------------------------------------------------|
Gb|-9-------9-------9-7-9-------9-------9-7-------------------7-9----------|
Db|-9-------9-------9-7-9-------9-------9-7-7-------7-------7-7-9----------|
G#|-7-7-7-7-7-7-7-7-7---7-7-7-7-7-7-7-7-7---6-6-6-6-6-6-6-6-6---7-7-7-7-7--|
D#|------------------------------------------------------------------------|
      . . .   . . .       . . .   . . .       . . .   . . .       . . . .
D#|---------------|
A#|---------------|
Gb|---------------|
Db|--------7-9-10*|
G#|-7-9-10--------|
D#|---------------|
      
D#|------------------------------------------------------------------------|
A#|------------------------------------------------------------------------|
Gb|-9-------9-------9-7-9-------9-------9-7-------------------7-9----------|
Db|-9-------9-------9-7-9-------9-------9-7-7-------7-------7-7-9----------|
G#|-7-7-7-7-7-7-7-7-7---7-7-7-7-7-7-7-7-7---6-6-6-6-6-6-6-6-6---7-7-7-7-7--|
D#|------------------------------------------------------------------------|
      . . .   . . .       . . .   . . .       . . .   . . .       . . . .
D#|---------------|
A#|---------------|
Gb|---------------|
Db|--------7-9-10-|
G#|-7-9-10--------|
D#|---------------|
     

D#|------------------------------------------------------------------------|
A#|------------------------------------------------------------------------|
Gb|-9-------9-------9-7-9-------9-------9-7-------------------7-9----------|
Db|-9-------9-------9-7-9-------9-------9-7-7-------7-------7-7-9----------|
G#|-7-7-7-7-7-7-7-7-7---7-7-7-7-7-7-7-7-7---6-6-6-6-6-6-6-6-6---7-7-7-7-7--|
D#|------------------------------------------------------------------------|
      . . .   . . .       . . .   . . .       . . .   . . .       . . . .
D#|---------------|
A#|---------------|
Gb|---------------|
Db|-10-9-7--------|
G#|--------10-9-7-|
D#|---------------|

D#|------------------------------------------------------------------|x2
A#|-7-0-0-0-7-0-0-0-8-0-0-0-5-0-0-0-7-0-0-0-7-0-0-0-8-0-0-0-10-0-0-0-|
Gb|------------------------------------------------------------------|
Db|------------------------------------------------------------------|
G#|------------------------------------------------------------------|
D#|------------------------------------------------------------------|

D#|-----------------------|x2
A#|-----------------------|
Gb|----4-----4-----7------|
Db|-4--4--4--4--5--7--7---|
G#|-4--2--4--2--5--5--7---|
D#|-2-----2-----3-----5---|

Solo(rhythm guitars):

D#|------------------------------------------------------------------|
A#|------------------------------------------------------------------|
Gb|------------------------------------------------------------------|
Db|------------------------------------------------------------------|
G#|------------------------------------------------------------------|
D#|-2-2-2-2-2-2-2-2-2-2-2-2-2-2-2-2-2-2-2-2-2-2-2-2-2-2-2-2-2-2-2-2--|

D#|------------------------------------------------------------------|
A#|------------------------------------------------------------------|
Gb|------------------------------------------------------------------|
Db|------------------------------------------------------------------|
G#|-2-2-2-2-2-2-2-2-2-2-2-2-2-2-2-2-2-2-2-2-2-2-2-2-2-2-2-2-2-2-2-2--|
D#|------------------------------------------------------------------|

D#|------------------------------------------------------------------|
A#|------------------------------------------------------------------|
Gb|------------------------------------------------------------------|
Db|------------------------------------------------------------------|
G#|------------------------------------------------------------------|
D#|-2-2-2-2-2-2-2-2-2-2-2-2-2-2-2-2-2-2-2-2-2-2-2-2-2-2-2-2-2-2-2-2--|

D#|-------|
A#|-------|
Gb|----7--|
Db|-5--7--|
G#|-5--5--|
D#|-3-----|
[ Tab from: http://www.guitartabs.cc/tabs/h/hammerfall/secrets_tab.html ]
D#|------------------------------------------------------------------|x2
A#|-7-0-0-0-7-0-0-0-8-0-0-0-5-0-0-0-7-0-0-0-7-0-0-0-8-0-0-0-10-0-0-0-|
Gb|------------------------------------------------------------------|
Db|------------------------------------------------------------------|
G#|------------------------------------------------------------------|
D#|------------------------------------------------------------------|

D#|------------------------------------------------------------------|
A#|------------------------------------------------------------------|
Gb|------------------------------------------------------------------|
Db|------------------------------------------------------------------|
G#|------------------------------------------------------------------|
D#|-2-2-2-2-2-2-2-2-2-2-2-2-2-2-2-2-2-2-2-2-2-2-2-2-2-2-2-2-2-2-2-2--|

D#|------------------------------------------------------------------|
A#|------------------------------------------------------------------|
Gb|------------------------------------------------------------------|
Db|------------------------------------------------------------------|
G#|-2-2-2-2-2-2-2-2-2-2-2-2-2-2-2-2-2-2-2-2-2-2-2-2-2-2-2-2-2-2-2-2--|
D#|------------------------------------------------------------------|

D#|------------------------------------------------------------------|
A#|------------------------------------------------------------------|
Gb|------------------------------------------------------------------|
Db|------------------------------------------------------------------|
G#|------------------------------------------------------------------|
D#|-2-2-2-2-2-2-2-2-2-2-2-2-2-2-2-2-2-2-2-2-2-2-2-2-2-2-2-2-2-2-2-2--|

D#|-------|
A#|-------|
Gb|----7--|
Db|-5--7--|
G#|-5--5--|
D#|-3-----|

D#|------------------------------------------------------------------|x2
A#|-7-0-0-0-7-0-0-0-8-0-0-0-5-0-0-0-7-0-0-0-7-0-0-0-8-0-0-0-10-0-0-0-|
Gb|------------------------------------------------------------------|
Db|------------------------------------------------------------------|
G#|------------------------------------------------------------------|
D#|------------------------------------------------------------------|

D#|----------------------------|
A#|----------------------------|
Gb|----7-----------------7-----|
Db|-5--7--7--3-4-5-7--5--7--7--|
G#|-5--5--7--3-4-5-7--5--5--7--|
D#|-3-----5--1-2-3-5--3-----5--|

D#|--------------------------|
A#|--------------------------|
Gb|--------------------------|
Db|--------------------------|
G#|--------------------------|
D#|-1-1-1-2-2-2-3-3-3-5-5-5--|
    . . . . . . . . . . . .
D#|---------------------------------------------------------------------------|
A#|---------------------------------------------------------------------------|
Gb|---------------------------------------------------------------------------|
Db|---------------------------------------------------------------------------|
G#|-------------------------5-5-5-5-5-5-5-5-5-5-5-5---------------------------|
D#|-3-3-3-3-3-3-3-3-3-3-3-3-------------------------5-5-5-5-5-5-5-5-5-5-5-5---|

D#|--------------------------|
A#|--------------------------|
Gb|--------------------------|
Db|--------------------------|
G#|--------------------------|
D#|-1-1-1-2-2-2-3-3-3-5-5-5--|
    . . . . . . . . . . . .
D#|---------------------------------------------------------------------------|
A#|---------------------------------------------------------------------------|
Gb|---------------------------------------------------------------------------|
Db|---------------------------------------------------------------------------|
G#|-------------------------5-5-5-5-5-5-5-5-5-5-5-5---------------------------|
D#|-3-3-3-3-3-3-3-3-3-3-3-3-------------------------5-5-5-5-5-5-5-5-5-5-5-5---|

D#|-----|
A#|-----|
Gb|--7--|
Db|--7--|
G#|--5--|
D#|-----|

D#|------------------------------------------------------------------------|
A#|------------------------------------------------------------------------|
Gb|-9-------9-------9-7-9-------9-------9-7-------------------7-9----------|
Db|-9-------9-------9-7-9-------9-------9-7-7-------7-------7-7-9----------|
G#|-7-7-7-7-7-7-7-7-7---7-7-7-7-7-7-7-7-7---6-6-6-6-6-6-6-6-6---7-7-7-7-7--|
D#|------------------------------------------------------------------------|
      . . .   . . .       . . .   . . .       . . .   . . .       . . . .
D#|---------------|
A#|---------------|
Gb|---------------|
Db|--------7-9-10*|
G#|-7-9-10--------|
D#|---------------|

D#|------------------------------------------------------------------------|
A#|------------------------------------------------------------------------|
Gb|-9-------9-------9-7-9-------9-------9-7-------------------7-9----------|
Db|-9-------9-------9-7-9-------9-------9-7-7-------7-------7-7-9----------|
G#|-7-7-7-7-7-7-7-7-7---7-7-7-7-7-7-7-7-7---6-6-6-6-6-6-6-6-6---7-7-7-7-7--|
D#|------------------------------------------------------------------------|
      . . .   . . .       . . .   . . .       . . .   . . .       . . . .
D#|---------------|
A#|---------------|
Gb|---------------|
Db|--------7-9-10-|
G#|-7-9-10--------|
D#|---------------|
     

D#|------------------------------------------------------------------------|
A#|------------------------------------------------------------------------|
Gb|-9-------9-------9-7-9-------9-------9-7-------------------7-9----------|
Db|-9-------9-------9-7-9-------9-------9-7-7-------7-------7-7-9----------|
G#|-7-7-7-7-7-7-7-7-7---7-7-7-7-7-7-7-7-7---6-6-6-6-6-6-6-6-6---7-7-7-7-7--|
D#|------------------------------------------------------------------------|
      . . .   . . .       . . .   . . .       . . .   . . .       . . . .
D#|---------------|
A#|---------------|
Gb|---------------|
Db|-10-9-7--------|
G#|--------10-9-7-|
D#|---------------|

D#|------------------------------------------------------------------|x2
A#|-7-0-0-0-7-0-0-0-8-0-0-0-5-0-0-0-7-0-0-0-7-0-0-0-8-0-0-0-10-0-0-0-|
Gb|------------------------------------------------------------------|
Db|------------------------------------------------------------------|
G#|------------------------------------------------------------------|
D#|------------------------------------------------------------------|

D#|-7-0-0-0-7-0-0-0-8-0-0-0-5-0-0-0-7-0-0-0-7-0-0-0-8-0-0-0-10-0-0-0-|x2
A#|------------------------------------------------------------------|
Gb|------------------------------------------------------------------|
Db|------------------------------------------------------------------|
G#|------------------------------------------------------------------|
D#|------------------------------------------------------------------|

D#|-----------------------|
A#|-----------------------|
Gb|----4-----4-----7------|
Db|-4--4--4--4--5--7--7---|
G#|-4--2--4--2--5--5--7---|
D#|-2-----2-----3-----5---|

D#|-------------------------------------------|
A#|-------------------------------------------|
Gb|----4-----4-----7--------------------------|
Db|-4--4--4--4--5--7--7-----7-----7-----7---7-|
G#|-4--2--4--2--5--5--7-----7-----7-----7---7-|
D#|-2-----2-----3-----5-5-5-5-5-5-5-5-5-5-5-5-|

D#|-------------------------------------------------------------------------|
A#|-------------------------------------------------------------------------|
Gb|-----------------------------------------------------9h11h12p11/12h14h15-|
Db|-----11-12-10h12p10-9------12-11--9h11h12p11/12h14h15--------------------|
G#|----------------------9-10-----------------------------------------------|
D#|-12/---------------------------------------------------------------------|

D#|-------------------------------------------14-12--------|
A#|-14--15--12-14-15-12--------------------15-------14-----|
Gb|-------------------------------9h11h12------------------|
Db|------------------------9h11h12-------------------------|
G#|---------------------9----------------------------------|
D#|--------------------------------------------------------|

D#|------------------------------------------------------------------------|
A#|------------------------------------------------------------------------|
Gb|-9-------9-------9-7-9-------9-------9-7-------------------7-9----------|
Db|-9-------9-------9-7-9-------9-------9-7-7-------7-------7-7-9----------|
G#|-7-7-7-7-7-7-7-7-7---7-7-7-7-7-7-7-7-7---6-6-6-6-6-6-6-6-6---7-7-7-7-7--|
D#|------------------------------------------------------------------------|
      . . .   . . .       . . .   . . .       . . .   . . .       . . . .

D#|---------------|
A#|---------------|
Gb|---------------|
Db|--------7-9-10*|
G#|-7-9-10--------|
D#|---------------|

D#|------------------------------------------------------------------------|
A#|------------------------------------------------------------------------|
Gb|-9-------9-------9-7-9-------9-------9-7-------------------7-9----------|
Db|-9-------9-------9-7-9-------9-------9-7-7-------7-------7-7-9----------|
G#|-7-7-7-7-7-7-7-7-7---7-7-7-7-7-7-7-7-7---6-6-6-6-6-6-6-6-6---7-7-7-7-7--|
D#|------------------------------------------------------------------------|
      . . .   . . .       . . .   . . .       . . .   . . .       . . . .

D#|------------------------------------------------------------------------------------|
A#|-------------------------------------------------------------------------9-11-12-12*|
Gb|-12-11-9-12-11-9-------12-11-9-12-11-9-------12-11-9-12-11-------9-11-12------------|
Db|-----------------12-11-----------------12-11---------------11-12--------------------|
G#|------------------------------------------------------------------------------------|
D#|------------------------------------------------------------------------------------|
     
D#|---------------------------|
A#|---------------------------|
Gb|-12-11-9-12-11-9-------8-9-|
Db|-----------------12-11-----|
G#|---------------------------|
D#|---------------------------|
     
________________________
www.iwantout@gmail.com
Comments