Hammerfall - Riders Of The Storm Chords & Tabs

 

Riders Of The Storm Chords & Tabs

Hammerfall Chords & Tabs

Version: 1 Type: Bass Tab 0 ratings
1 star 2 stars 3 stars 4 stars 5 stars
comments

Riders Of The Storm Bass Tab

     Gtr I
F||---------------|------------|--------------|---------||
C||o----------1---|------------|--------------|--------o||
G||o--------------|------------|-4-4---4----6-|-(6)----o||
D||--1-1---4----1-|-(1)--------|----------4---|---------||


|-----------------|-----------------|-----------------|-----------------|
|-----------------|-----------------|-----------------|-----------------|
|-----------------|-----------------|-4-4-4-4-4-4-4---|-6-6-6-6-6-6-6---|
|-1-1-1-1-1-1-1-1-|-1-1-1-1-1-1-1-1-|---------------4-|---------------4-|


|-----------------|-----------------|-----------------|--------|
|-----------------|-----------------|-----------------|--------|
|-----------------|-----------------|-4-4-4-4-4-4-4-6-|-(6)----|
|-1-1-1-1-1-1-1-1-|-1-1-1-1-1-1-1-1-|-----------------|--------|


   Verse
||------------------|-----------------|-----------------|------------------|
||o-----------------|-----------------|-----------------|------------------|
||o-----------------|-4-4-4-4-4-4-4-4-|-----------------|-6-6-6-6-6-6-6-6--|
||--1-1-1-1-1-1-1-1-|-----------------|-4-4-4-4-4-4-4-4-|------------------|


|-----------------|-----------------|-----------------|----------------||
|-----------------|-----------------|-----------------|---------------o||
|-----------------|-4-4-4-4-4-4-4-4-|-----------------|-3-3-3---------o||
|-1-1-1-1-1-1-1-1-|-----------------|-4-4-4-4-4-4-4-4-|--------6-6-6---||


 Pre-Chorus
|-----------------|-----------------|-----------------|-----------------|
|-----------------|-----------------|-----------------|-----------------|
|-----------------|-----------------|-3-3-3-3-3-3-3-3-|-3-3-3-3-3-3-1-3-|
|-4-4-4-4-4-4-4-4-|-4-4-4-4-4-4-6-6-|-----------------|-----------------|


|-----------------|-----------------|-----------------|-----------------|
|-----------------|-----------------|-----------------|-----------------|
|-4-4-4-4-4-4-4-4-|-4-4-4-4-4-4-4-4-|-6-6-6-6-6-6-6-6-|-3-3-3-3-3-------|
|-----------------|-----------------|-----------------|-----------4-4-3-|


 Chorus
|-----------------|-----------------|-----------------|-----------------|
|-----------------|-----------------|-----------------|-----------------|
|-----------------|-----------------|-4-4-4-4-4-4-4---|-6-6-6-6-6-------|
|-1-1-1-1-1-1-1-1-|-1-1-1-1-1-1-1-1-|---------------4-|-----------4-4-3-|


|-----------------|-----------------|-----------------|--------|
|-----------------|-----------------|-----------------|--------|
|-----------------|-----------------|-4-4-4-4-4-4-4-6-|-(6)----|
|-1-1-1-1-1-1-1-1-|-1-1-1-1-1-1-1-1-|-----------------|--------|


 Verse + Pre-Chorus + Chor

[ Tab from: http://www.guitartabs.cc/tabs/h/hammerfall/riders_of_the_storm_btab.html ]
 Interlude & Solos
|-----------|----------|----------|--------------|
|-----------|----------|----------|--------------|
|-3-3-------|-------3--|-1--------|--------------|
|-----------|----------|----------|-4-4-4-4---6--|


|-----------|---------|-----------------|----------------|
|-----------|---------|-----------------|----------------|
|-3-3-------|---------|-6-6-6-6-6-6-6-6-|----------------|
|-----------|---------|-----------------|-6-6-6-6-6-6-7--|


|-----------------|-----------------|-----------------|-------------------|
|-----------------|-----------------|-----------------|-------------------|
|-3-3-3-3-3-3-3-3-|-3-3-3-3-3-3-3-3-|-1-1-1-1-1-1-1-1-|-------------------|
|-----------------|-----------------|-----------------|-4-4-4-4-4-4-6-6---|


|-----------------|-----------------|-----------------|-----------------|
|-----------------|-----------------|-1-1-1-1-1-1-1-1-|-----------------|
|-3-3-3-3-3-3-3-3-|-3-3-3-3-3-3-3-3-|-----------------|-1-1-1-1-1-1-1-1-|
|-----------------|-----------------|-----------------|-----------------|


|-----------------|-----------------|-----------------|-----------------|
|-----------------|-----------------|-----------------|-----------------|
|-3-3-3-3-3-3-3-3-|-3-3-3-3-3-3-3-3-|-1-1-1-1-1-1-1-1-|-----------------|
|-----------------|-----------------|-----------------|-4-4-4-4-4-4-6-6-|


|-----------------|-----------------|-----------------|-----------------|
|-----------------|-----------------|-----------------|-----------------|
|-3-3-3-3-3-3-3-3-|-3-3-3-3-3-3-3-3-|---------------1-|-1-1-1-1-1-1-1-1-|
|-----------------|-----------------|-4-4-4-4-4-4-4---|-----------------|


                                                                          4x
||------------------|-----------------|-----------------|-----------------||
||o-----------------|-----------------|-----------------|----------------o||
||o-6-6-6-6-6-6-6-6-|-6-6-6-6-6-6-6-6-|-2-2-2-2-2-2-2-2-|------------4---o||
||------------------|-----------------|-----------------|-2-2-2-2-2-------||


   Outro
||-----------------|------------|----------------|---------||
||o------------1---|------------|----------------|--------o||
||o----------------|------------|-4-4-4-4-4----6-|-(6)----o||
||--1-1-1-1-4----1-|-(1)--------|------------4---|---------||


                                                                            3x
||------------------|-----------------|-----------------|-------------------||
||o-----------------|---------------1-|-2-2-2-2-2-2-----|------------------o||
||o-----------------|-----------1-2---|-------------2---|------------------o||
||--4-4-4-4-4-4-4-4-|-4-4-4-4-4-------|---------------2-|-2-2-2-2-2-2-2-2---||


|-----------------|-----------------|--------------|--------|
|-----------------|---------------1-|-2-2---2------|--------|
|-----------------|-----------1-2---|----------2-4-|-(4)----|
|-4-4-4-4-4-4-4-4-|-4-4-4-4-4-------|--------------|--------|
Comments