Hammerfall - Raise The Hammer Chords & Tabs

 

Raise The Hammer Chords & Tabs

Hammerfall Chords & Tabs

Version: 1 Type: Bass Tab 0 ratings
1 star 2 stars 3 stars 4 stars 5 stars
comments

Raise The Hammer Bass Tab

|----------------|---------------------------------|
|----------------|-----------------------------5---|
|--6-5-3---------|------------------------5-6-8----|
|-------6-5-3-2--|-333-333-333-333-333-333---------|

|-------------------------------------|
|-------------------------------------|
|------------------------6-5-3--------|
|-333-333-333-333-333-333-----6-5-3-2-|

|----------------|----------------|----------------|
|----------------|----------------|----------------|
|--6-5-3---------|--6-5-3---------|----------------|
|-------6-5-3-2--|-------6-5-3-2--|---3--------3---|


|---------------------------------------|
|---------------------------------------|
|------------------------6-5-3----------|
|-333-333-333-333-333-333-----6-5-3-2-3-|

|---------------------------------------|
|---------------------------------------|
|---------------------------------------|
|-111-111-111-111-111-111-111-111-111---|

|---------------------------------------|
|---------------------------------------|
|------------------------6-5-3----------|
|-333-333-333-333-333-333-----6-5-3-2-3-|

|---------------------------------------|
|---------------------------------------|
|-333-333-333-333-333-333-333-333-333---|
|---------------------------------------|

|---------------------------------------|
|---------------------------------------|
|---------------------------------------|
|-333-333-333-333-333-333-333-333-333---|

|---------------------------------------|
|---------------------------------------|
|---------------------------------------|
|-111-111-111-111-111-111-111-111-111---|

|---------------------------------------|
|---------------------------------------|
|---------------------------------------|
|-555-555-555-555-555-555-555-555-555---|

|---------------------------------------|
|---------------------------------------|
|---------------------------------------|
|-333-333-333-333-333-333-333-333-333---|

|---------------------------------------|
|---------------------------------------|
|---------------------------------------|
|-555-555-555-555-555-555-555-555-555---|

|---------------------------------------|
|---------------------------------------|
|---------------------------------------|
|-555-555-555-555-555-555-555-555-555---|

|---------------------------------------|
|---------------------------------------|
|---------------------------------------|
|-333-333-333-333-333-333-333-333-333---|

|---------------------------------------|
|---------------------------------------|
|---------------------------------------|
|-555-555-555-555-555-555-555-555-555---|

|----------------|------------------------------|
|----------------|------------------------------|
|--6-5-3---------|------------------------------|
|-------6-5-3-2--|-333-333-333-333-333-333-333--|

|---------------------------------------|
|---------------------------------------|
|------------------------6-5-3----------|
|-333-333-333-333-333-333-----6-5-3-2-3-|

|---------------------------------------|
|---------------------------------------|
|------------------------6-5-3----------|
|-333-333-333-333-333-333-----6-5-3-2-3-|

|---------------------------------------|
|---------------------------------------|
|---------------------------------------|
|-111-111-111-111-111-111-111-111-111---|

|---------------------------------------|
|---------------------------------------|
|------------------------6-5-3----------|
|-333-333-333-333-333-333-----6-5-3-2-3-|

|---------------------------------------|
|---------------------------------------|
|-333-333-333-333-333-333-333-333-333---|
|---------------------------------------|

|---------------------------------------|
|---------------------------------------|
|---------------------------------------|
|-333-333-333-333-333-333-333-333-333---|

|---------------------------------------|
|---------------------------------------|
|---------------------------------------|
|-111-111-111-111-111-111-111-111-111---|

|---------------------------------------|
|---------------------------------------|
|---------------------------------------|
|-555-555-555-555-555-555-555-555-555---|

|---------------------------------------|
|---------------------------------------|
|---------------------------------------|
|-333-333-333-333-333-333-333-333-333---|

|---------------------------------------|
|---------------------------------------|
|---------------------------------------|
|-555-555-555-555-555-555-555-555-555---|

|---------------------------------------|
|---------------------------------------|
|---------------------------------------|
|-333-333-333-333-333-333-333-333-333---|

|---------------------------------------|
|---------------------------------------|
|---------------------------------------|
|-555-555-555-555-555-555-555-555-555---|
[ Tab from: http://www.guitartabs.cc/tabs/h/hammerfall/raise_the_hammer_btab.html ]
|-----------------------------|
|-----------------------------|
|-----------------------------|
|-----2-----0-----2-----0-----|

|---------------------------------------|
|---------------------------------------|
|---------------------------------------|
|-222-222-222-222-222-222-222-222-222---|

|---------------------------------------|
|---------------------------------------|
|---------------------------------------|
|-000-000-000-000-000-000-000-000-000---|

|---------------------------------------|
|---------------------------------------|
|---------------------------------------|
|-222-222-222-222-222-222-222-222-222---|

|---------------------------------------|
|---------------------------------------|
|---------------------------------------|
|-000-000-000-000-000-000-000-000-000---|

|---------------------------------------|
|---------------------------------------|
|---------------------------------------|
|-555-555-555-555-555-555-555-555-555---|

|---------------------------------------|
|---------------------------------------|
|---------------------------------------|
|-000-000-000-000-000-000-000-000-000---|

|---------------------------------------|
|---------------------------------------|
|---------------------------------------|
|-555-555-555-555-555-555-555-555-555---|

|---------------------------------------|
|---------------------------------------|
|---------------------------------------|
|-000-000-000-000-000-000-000-000-000---|

|---------------------------------------|
|---------------------------------------|
|---------------------------------------|
|-222-222-222-222-222-222-222-222-222---|

|---------------------------------------|
|---------------------------------------|
|---------------------------------------|
|-000-000-000-000-000-000-000-000-000---|

|---------------------------------------|
|---------------------------------------|
|---------------------------------------|
|-222-222-222-222-222-222-222-222-222---|

|---------------------------------------|
|---------------------------------------|
|---------------------------------------|
|-000-000-000-000-000-000-000-000-000---|

|---------------------------------------|
|---------------------------------------|
|---------------------------------------|
|-555-555-555-555-555-555-555-555-555---|

|---------------------------------------|
|---------------------------------------|
|---------------------------------------|
|-000-000-000-000-000-000-000-000-000---|

|---------------------------------------|
|---------------------------------------|
|---------------------------------------|
|-555-555-555-555-555-555-555-555-555---|

|---------------------------------------|
|---------------------------------------|
|---------------------------------------|
|-000-000-000-000-000-000-000-000-000---|

|---------------------------------------|
|---------------------------------------|
|-333-333-333-333-333-333-333-333-333---|
|---------------------------------------|

|---------------------------------------|
|---------------------------------------|
|---------------------------------------|
|-333-333-333-333-333-333-333-333-333---|

|---------------------------------------|
|---------------------------------------|
|---------------------------------------|
|-111-111-111-111-111-111-111-111-111---|

|---------------------------------------|
|---------------------------------------|
|---------------------------------------|
|-555-555-555-555-555-555-555-555-555---|

|---------------------------------------|
|---------------------------------------|
|---------------------------------------|
|-333-333-333-333-333-333-333-333-333---|

|---------------------------------------|
|---------------------------------------|
|---------------------------------------|
|-555-555-555-555-555-555-555-555-555---|

|---------------------------------------|
|---------------------------------------|
|---------------------------------------|
|-333-333-333-333-333-333-333-333-333---|

|---------------------------------------|
|---------------------------------------|
|---------------------------------------|
|-555-555-555-555-555-555-555-555-555---|

|----------|-----------|-------------|
|----------|-------5---|-------------|
|--6-5-3---|--5-6-8--5-|--6-5-3------|
|-------6--|-----------|-------6-----|

|----------------|---------------------------------|
|----------------|-----------------------------5---|
|--6-5-3---------|------------------------5-6-8----|
|-------6-5-3-2--|-333-333-333-333-333-333---------|

|-------------------------------------|
|-------------------------------------|
|------------------------6-5-3--------|
|-333-333-333-333-333-333-----6-5-3-2-|

|----------------|----------------|----------------|
|----------------|----------------|----------------|
|--6-5-3---------|--6-5-3---------|----------------|
|-------6-5-3-2--|-------6-5-3-2--|---3--------3---|
Comments