Hammerfall - Never Ever Chords & Tabs

 

Hammerfall Chords & Tabs

Version: 1 Type: Tab 0 ratings
1 star 2 stars 3 stars 4 stars 5 stars
comments

Never Ever Tab

Intro (first solo)
------------------------------------------------------------------------|
--16-16-14-12-16---16-16-14-12-17---17-17-14-16-16-14--14-12-14-9-------|
------------------------------------------------------------------------|
------------------------------------------------------------------------|
------------------------------------------------------------------------|
------------------------------------------------------------------------|


------------------------------------------------------------------------|
--16-16-14-12-16---16-16-14-12-17---21-21-18-19-19-19-19-16-18-14/16----|
------------------------------------------------------------------------|
------------------------------------------------------------------------|
------------------------------------------------------------------------|
------------------------------------------------------------------------|

[ Tab from: http://www.guitartabs.cc/tabs/h/hammerfall/never_ever_tab.html ]
CHORUS
------------------------------------------------------------------------|
------------------------------------------------------------------------|
-----4---------4-8------------------------------------------------------|
--6--4-4-2---4-4-8-8-6--------------------------------------------------|
--6--2-4-2---4-2-6-8-6--------------------------------------------------|
--4----2-0---6-----6-4--------------------------------------------------|


After second CHORUS
------------------------------------------------------------------------|
------------------------------------------------------------------------|
--------------------6---------------------------------------------------|
----------------2---6-9-9-6---8--9-----9---------11-----------------11--|
----------------2---4-9-9-6---8--9-----9---------11-----------------13--|
--7-0-0-0-6-0-0-2-----7-7-4---6--7-7-7-7-7-7-7-7-9--9-9-9-9-9-9-9-9-11--|
Comments