Hammerfall - Legend Reborn Chords & Tabs

 

Legend Reborn Chords & Tabs

Hammerfall Chords & Tabs

Version: 2 Type: Tab 0 ratings
1 star 2 stars 3 stars 4 stars 5 stars
comments

Legend Reborn Tab

                                  A legend reborn                                    


                                                           Oscar Dronjak, Joacim Cans
Rhythm
TABed by Martin Kahnberg, aka Owain ap Nghân
         kahnberg@freemail.hammerfall.net
         http://www.geocities.com/kahnberg


    intro                   riff 1                                      
D#||--|--|--|--|--|--|--|--|-------------------|--|--------------------|
A#||--|--|--|--|--|--|--|--|-------------------|--|--------------------|
F#||--|--|--|--|--|--|--|--|-------------------|--|--5-----------------|
C#||--|--|--|--|--|--|--|--|--7----------------|--|--5------2----------|
G#||--|--|--|--|--|--|--|--|--7----------------|--|--3------2----------|
D#||--|--|--|--|--|--|--|--|--5----------------|--|---------0----------|


                                                                 
--------------------|-------------------|--|--------------------|
--------------------|-------------------|--|--------------------|
--------------------|-------------------|--|--5-----------------|
--3/-----7----------|--7----------------|--|--5------2----------|
--3/-----7----------|--7----------------|--|--3------2----------|
--1/-----5----------|--5----------------|--|---------0----------|


                       chorus                                           
----------------------|--------------------------|--------------------------|
----------------------|--------------------------|--------------------------|
-----------2----------|--------------------------|--------------------------|
--3--3--0--2----------|--7--------------7--7-----|-----------7--------------|
--3--3--2--0----------|--7--------------7--7-----|--8--8--5--7--------------|
--1--1--3-------------|--5--5--5--5--5--5--5--5--|--5--5--5--5--5--5--5--5--|


                                                                              
-----------------------|--------------------------|--------------------------|
-----------------------|--------------------------|--------------------------|
--5--------------------|--------------------------|--------------------------|
--5------2-------------|--3-----5--7--------------|--7--------------7--7-----|
--3------2-------------|--3-----5--7--------------|--7--------------7--7-----|
---------0----0--0--0--|--1--1--3--5--5--5--5--5--|--5--5--5--5--5--5--5--5--|


                                                                              
--------------------------|-----------------------|--------------------------|
--------------------------|-----------------------|--------------------------|
--------------------------|--5--------------------|-----------2--------------|
-----------7--------------|--5------2-------------|--3-----0--2--------------|
--8--8--5--7--------------|--3------2-------------|--3-----2--0--0--0--0--0--|
--5--5--5--5--5--5--5--5--|---------0----0--0--0--|--1--1--3-----------------|


 verse 1 & 2                                                                       
|---------------------------|--------------------------|--------------------------|
|---------------------------|--------------------------|--------------------------|
|*--------------------------|--------------------------|--------------------------|
|*--7-----------------------|--------------------------|--------------------------|
|---7-----------------------|--------------------------|--------------------------|
|---5--5--5--5--5--5--5--5--|--5--5--5--5--5--5--5--5--|--1--1--1--1--1--1--1--1--|


                                                                                
-------------------------|--------------------------|--------------------------|
-------------------------|--------------------------|--------------------------|
--5--------5-------------|--------------------------|--------------------------|
--5--------5-------5/-7--|--7-----------------------|--------------------------|
--3--3--3--3-------5/-7--|--7-----------------------|--------------------------|
----------------3--3/-5--|--5--5--5--5--5--5--5--5--|--5--5--5--5--5--5--5--5--|


                                                                                 
--------------------------|--------------------------|--------------------------|
--------------------------|--------------------------|--------------------------|
--------------------------|--------------------------|--------------------------|
--------------------------|--------------------------|--7-----------------------|
--------------------------|--------------------------|--7-----------------------|
--1--1--1--1--1--1--1--1--|--1--1--1--1--1--1--1--5--|--5--5--5--5--5--5--5--5--|


                                                                                
--------------------------|--------------------------|-------------------------|
--------------------------|--------------------------|-------------------------|
--------------------------|--------------------------|--5--------5-------------|
--------------------------|--------------------------|--5--------5-------5/-7--|
--------------------------|--------------------------|--3--3--3--3-------5/-7--|
--5--5--5--5--5--5--5--5--|--1--1--1--1--1--1--1--1--|----------------3--3/-5--|


                                                                                 
--------------------------|--------------------------|--------------------------|
--------------------------|--------------------------|--------------------------|
--------------------------|--------------------------|--------------------------|
--7-----------------------|--------------------------|--------------------------|
--7-----------------------|--------------------------|--------------------------|
--5--5--5--5--5--5--5--5--|--5--5--5--5--5--5--5--5--|--1--1--1--1--1--1--1--1--|


                           bridge                                               
--------------------------|-------------------------|--------------------------|
--------------------------|-------------------------|--------------------------|
--------------------------|-------------------------|--------------------------|
--------------------------|-------------------------|--------------------------|
-----------------------5--|----5--5--5--5--5--5--5--|--5--5--5--5--5--5--5-----|
--1--1--1--1--1--1--1-----|-------------------------|-----------------------5--|


                                                                               
-------------------------|-------------------------|--------------------------|
-------------------------|-------------------------|--------------------------|
-------------------------|-------------------------|--------------------------|
-------------------------|-------------------------|--------------------------|
-------------------------|-------------------------|--3--3--3--3--3--3--3--5--|
----5--5--5--5--5--5--3--|----3--3--3--3--3--3--3--|--------------------------|


                                                       chorus                     
-------------------------|----------------------0--|--|--------------------------|
-------------------------|----------------------0--|--|--------------------------|
-------------------------|----------------------9--|--|--------------------------|
-------------------------|----------------------9--|--|--7--------------7--7-----|
----5--5--5--5--5--5--7--|----7--7--7--7--7--7--7--|--|--7--------------7--7-----|
----------------------0--|----0--0--0--0--0--0--0--|--|--5--5--5--5--5--5--5--5--|


                                                                              
--------------------------|-----------------------|--------------------------|
--------------------------|-----------------------|--------------------------|
--------------------------|--5--------------------|--------------------------|
-----------7--------------|--5------2-------------|--3-----5--7--------------|
--8--8--5--7--------------|--3------2-------------|--3-----5--7--------------|
--5--5--5--5--5--5--5--5--|---------0----0--0--0--|--1--1--3--5--5--5--5--5--|


                                                                              
--------------------------|--------------------------|-----------------------|
--------------------------|--------------------------|-----------------------|
--------------------------|--------------------------|--5--------------------|
--7--------------7--7-----|-----------7--------------|--5------2-------------|
--7--------------7--7-----|--8--8--5--7--------------|--3------2-------------|
--5--5--5--5--5--5--5--5--|--5--5--5--5--5--5--5--5--|---------0----0--0--0--|


                             stick                                                
---------------------------||--------------------------|-------------------------|
---------------------------||--------------------------|-------------------------|
-----------2--------------*||--------------------------|--------------------5----|
--3-----0--2--------------*||--5-----------------------|--------------------5----|
--3-----2--0--0--0--0--0---||--5-----------------------|--------------------3----|
--1--1--3------------------||--3--3--3--3--3--3--3--3--|--3--3--3--3--3--3-------|

[ Tab from: http://www.guitartabs.cc/tabs/h/hammerfall/legend_reborn_tab_ver_2.html ]
                                                                                
--------------------------|-------------------------|--------------------------|
--------------------------|-------------------------|--------------------------|
--------------------------|--------------------5----|--7-----------------------|
--7-----------------------|--------------------5----|--7-----------------------|
--7-----------------------|--------------------3----|--5--5--5--5--5--5--5--5--|
--5--5--5--5--5--5--5--5--|--5--5--5--5--5--5-------|--------------------------|


                                                       
-------------------------|----------------------------|
-------------------------|----------------------------|
--------------------9----|--10--------------------12--|
--------------------9----|--10--------------------12--|
--5--5--5--5--5--5--7----|--8---8--8--8--8--8--8--10--|
-------------------------|----------------------------|


                                 solo                       
--------------------------------|--------------------------|
--------------------------------|--------------------------|
--------------------------------|--------------------------|
--------------------------------|--4--------------4-----4--|
----10--10--10--10--10--10--10--|--4--------------4-----4--|
--------------------------------|--2--2--2--2--2--2--2--2--|


                                                                                
--------------------------|--------------------------|-------------------------|
--------------------------|--------------------------|-------------------------|
--------------------------|--------------------------|-------------------------|
-----------------------6--|--7--------------------2--|-------------------------|
-----------------------6--|--7--------------------2--|-------------------------|
--2--2--2--2--2--2--2--4--|--5--5--5--5--5--5--5--0--|----0--0--0--0--0--0--0--|


                                                                                 
--------------------------|--------------------------|--------------------------|
--------------------------|--------------------------|--------------------------|
--------------------------|--------------------------|--------------------------|
--4--------------4-----4--|-----------------------6--|--7--------------------2--|
--4--------------4-----4--|-----------------------6--|--7--------------------2--|
--2--2--2--2--2--2--2--2--|--2--2--2--2--2--2--2--4--|--5--5--5--5--5--5--5--0--|


                                                                                
-------------------------|--------------------------|--------------------------|
-------------------------|--------------------------|--------------------------|
-------------------------|--------------------------|--------------------------|
-------------------------|--4--------------4-----4--|-----------------------6--|
-------------------------|--4--------------4-----4--|-----------------------6--|
----0--0--0--0--0--0--0--|--2--2--2--2--2--2--2--2--|--2--2--2--2--2--2--2--4--|


                                                                                
--------------------------|-------------------------|--------------------------|
--------------------------|-------------------------|--------------------------|
--------------------------|-------------------------|--------------------------|
--7--------------------2--|-------------------------|--4--------------4-----4--|
--7--------------------2--|-------------------------|--4--------------4-----4--|
--5--5--5--5--5--5--5--0--|----0--0--0--0--0--0--0--|--2--2--2--2--2--2--2--2--|


                                                                                
--------------------------|--------------------------|-------------------------|
--------------------------|--------------------------|-------------------------|
--------------------------|--------------------------|-------------------------|
-----------------------6--|--7--------------------2--|-------------------------|
-----------------------6--|--7--------------------2--|-------------------------|
--2--2--2--2--2--2--2--4--|--5--5--5--5--5--5--5--0--|----0--0--0--0--0--0--0--|


                                                                                
-------------------|-------------------|-------------------|-------------------|
-------------------|-------------------|-------------------|-------------------|
-------------------|--------------5----|-------------------|--------------5----|
--5----------------|--------------5----|--7----------------|--------------5----|
--5----------------|--------------3----|--7----------------|--------------3----|
--3----------------|-------------------|--5----------------|-------------------|


                                                                    
-------------------|-------------------|---------------------------|
-------------------|-------------------|---------------------------|
--7----------------|--------------9----|--10-----------------------|
--7----------------|--------------9----|--10-----------------------|
--5----------------|--------------7----|--8---8--8--8--8--8--8--8--|
-------------------|-------------------|---------------------------|


                          riff 1                                                  
-------------------------|-------|--|------------|--------------------|-------|--|
-------------------------|-------|--|------------|--------------------|-------|--|
--9----------------------|-------|--|--5---------|--------------------|-------|--|
--9----------------------|--7----|--|--5------2--|--3/-----7----------|--7----|--|
--7--7--7--7--7--7--7----|--7----|--|--3------2--|--3/-----7----------|--7----|--|
-------------------------|--5----|--|---------0--|--1/-----5----------|--5----|--|


                                    chorus                     
------------|----------------------|--------------------------|
------------|----------------------|--------------------------|
--5---------|-----------2----------|--------------------------|
--5------2--|--3--3--0--2----------|--7--------------7--7-----|
--3------2--|--3--3--2--0----------|--7--------------7--7-----|
---------0--|--1--1--3-------------|--5--5--5--5--5--5--5--5--|


                                                                              
--------------------------|-----------------------|--------------------------|
--------------------------|-----------------------|--------------------------|
--------------------------|--5--------------------|--------------------------|
-----------7--------------|--5------2-------------|--3-----5--7--------------|
--8--8--5--7--------------|--3------2-------------|--3-----5--7--------------|
--5--5--5--5--5--5--5--5--|---------0----0--0--0--|--1--1--3--5--5--5--5--5--|


                                                                              
--------------------------|--------------------------|-----------------------|
--------------------------|--------------------------|-----------------------|
--------------------------|--------------------------|--5--------------------|
--7--------------7--7-----|-----------7--------------|--5------2-------------|
--7--------------7--7-----|--8--8--5--7--------------|--3------2-------------|
--5--5--5--5--5--5--5--5--|--5--5--5--5--5--5--5--5--|---------0----0--0--0--|


                           chorus                                                
--------------------------|--------------------------|--------------------------|
--------------------------|--------------------------|--------------------------|
-----------2--------------|--------------------------|--------------------------|
--3-----0--2--------------|--7--------------7--7-----|-----------7--------------|
--3-----2--0--0--0--0--0--|--7--------------7--7-----|--8--8--5--7--------------|
--1--1--3-----------------|--5--5--5--5--5--5--5--5--|--5--5--5--5--5--5--5--5--|


                                                                              
-----------------------|--------------------------|--------------------------|
-----------------------|--------------------------|--------------------------|
--5--------------------|--------------------------|--------------------------|
--5------2-------------|--3-----5--7--------------|--7--------------7--7-----|
--3------2-------------|--3-----5--7--------------|--7--------------7--7-----|
---------0----0--0--0--|--1--1--3--5--5--5--5--5--|--5--5--5--5--5--5--5--5--|


                                                                          outro    
--------------------------|-----------------------|----------------------|--|--|--|
--------------------------|-----------------------|----------------------|--|--|--|
--------------------------|--5--------------------|-----------2----------|--|--|--|
-----------7--------------|--5------2-------------|--3-----0--2----------|--|--|--|
--8--8--5--7--------------|--3------2-------------|--3-----2--0----------|--|--|--|
--5--5--5--5--5--5--5--5--|---------0----0--0--0--|--1--1--3-------------|--|--|--|


                         
--|--|--|--|--|--|--|--||
--|--|--|--|--|--|--|--||
--|--|--|--|--|--|--|--||
--|--|--|--|--|--|--|--||
--|--|--|--|--|--|--|--||
--|--|--|--|--|--|--|--||


Comments