Hammerfall - Keep The Flame Burning Chords & Tabs

 

Keep The Flame Burning Chords & Tabs

Hammerfall Chords & Tabs

Version: 1 Type: Tab 0 ratings
1 star 2 stars 3 stars 4 stars 5 stars
comments

Keep The Flame Burning Tab

            -----------------------------------------------------
                   keep the flame burning by hammerfall
            -----------------------------------------------------
    
    tabbed by:ruben celius
    e-mail:r_celius@hotmail.com


[ Tab from: http://www.guitartabs.cc/tabs/h/hammerfall/keep_the_flame_burning_tab.html ]
e|-------------------------------------------------------------------------|
b|-------------------------------------------------------------------------|
g|-------------------------------------------------------------------------|
d|---------7---------7---------9---------9---------12--11----------9-------|
a|---------5---------5---------7---------7---------10--9-----------7-------|
e|-0-0-0-0---0-0-0-0---0-0-0-0---0-0-0-0---0-0-0-0---------0-0-0-0---0-0-0-|
   p.m....   .......   .......   .......   .......         .......   .....
                           play four times
e|-------------------------------------------------------------------------|
b|-------------------------------------------------------------------------|
g|-------------------------------------------------------------------------|
d|---9---------3--5--5---(-3--5--5---3--5--5-)-----------------------------|
a|---7---------1--3--3---(-1--3--3---1--3--3-)-----------------------------|
e|-----0-0-0-0-------------------------------------------------------------|
       .......

e|-------------------------------------------------------------------------|
b|-------------------------------------------------------------------------|
g|-------------------------------------------------------------------------|
d|---------7---------7---------9---------10--------12-12-------------------|
a|---------5---------5---------7---------8---------10-10-------------------|
e|-0-0-0-0---0-0-0-0---0-0-0-0---0-0-0-0---0-0-0-0-------------------------|
   .......   .......   .......   .......   .......

e|-------------------------------------------------------------------------|
b|-------------------------------------------------------------------------|
g|-------------------------------------------------------------------------|
d|---------9---------9--------11---------12---------14-12------------------|
a|---------7---------7---------9---------10---------12-10------------------|
e|-0-0-0-0---0-0-0-0---0-0-0-0---0-0-0-0----0-0-0-0------------------------|
   .......   .......   .......   .......    .......
Comments