Hammerfall - Hammerfall Chords & Tabs

 

Hammerfall Chords & Tabs

Hammerfall Chords & Tabs

Version: 2 Type: Bass Tab 0 ratings
1 star 2 stars 3 stars 4 stars 5 stars
comments

Hammerfall Bass Tab

Tune Down

F#||--------------------|--------------------------|--------------------------|
C#||--------------------|--------------------------|--------------------------|
G#||--7--------5--------|--------------------------|--------------------3--3--|
D#||--------------------|--3--3--3--3--3--3--3--3--|--3--3--3--3--3--3--------|


                                                      
--------------------------|--------------------------|
--------------------------|--------------------3--3--|
--5--5--5--5--5--5--5--5--|--5--5--5--5--5--5--------|
--------------------------|--------------------------|


                                                      
--------------------------|--------------------------|
--------------------------|--------------------------|
--------------------------|--------------------3--3--|
--3--3--3--3--3--3--3--3--|--3--3--3--3--3--3--------|


                                                                          
--------------------------|--------------------------|-------------------|
--------------------------|--------------------3--3--|-------------------|
--5--5--5--5--5--5--5--5--|--5--5--5--5--5--5--------|-------------------|
--------------------------|--------------------------|--5----------------|


                                                              
--------------------|-------------------|--------------------|
--------------------|-------------------|--------------------|
--------------------|-------------------|--------------------|
------------3----3--|--5----------------|------------1----1--|


                                                             
-------------------|--------------------|-------------------|
-------------------|--------------------|-------------------|
-------------------|--------------------|-------------------|
--3----------------|------------1----1--|--5----------------|


                                                                           
--------------------|--------------------------|--------------------------|
--------------------|--------------------------|--------------------------|
--------------------|--0--0--0--0--0--0--0--0--|--0--0--0--0--0--0--------|
------------3----3--|--------------------------|--------------------3--3--|


                                                      
--------------------------|--------------------------|
--------------------------|--------------------------|
--0--0--0--0--0--0--0--0--|--0--0--0--0--0--0--------|
--------------------------|--------------------1--1--|


                                                                                
--------------------------|-------------------------|--------------------------|
--------------------------|-------------------------|--------------------------|
--------------------------|-------------------------|--0--0--0--0--0--0--0--0--|
--3--3--3--3--3--3--3--3--|--3--3--3--3--3--1----1--|--------------------------|


                                                                               
------------------------|--------------------------|--------------------------|
--3--------5----0----0--|--------------------------|--------------------------|
-----0--0---------------|--------------------------|--2--2--2--2--2--2--2--2--|
------------------------|--0--0--0--0--0--0--0--0--|--------------------------|


                                                      
--------------------------|--------------------------|
--------------------------|--------------------------|
--3--3--3--3--3--3--3--3--|--------------------------|
--------------------------|--3--3--3--3--2--2--2--2--|


                                                      
--------------------------|--------------------------|
--------------------------|--------------------------|
--------------------------|--2--2--2--2--2--2--2--2--|
--0--0--0--0--0--0--0--0--|--------------------------|


                                                      
--------------------------|--------------------------|
--------------------------|--------------------------|
--3--3--3--3--3--3--3--3--|--------------------------|
--------------------------|--3--3--3--3--2--2--2--2--|


                                                      
--------------------------|--------------------------|
--------------------------|--------------------------|
--------------------------|--------------------3--3--|
--3--3--3--3--3--3--3--3--|--3--3--3--3--3--3--------|


                                                      
--------------------------|--------------------------|
--------------------------|--------------------3--3--|
--5--5--5--5--5--5--5--5--|--5--5--5--5--5--5--------|
--------------------------|--------------------------|


                                                      
--------------------------|--------------------------|
--------------------------|--------------------------|
--------------------------|--------------------3--3--|
--3--3--3--3--3--3--3--3--|--3--3--3--3--3--3--------|


                                                      
--------------------------|--------------------------|
--------------------------|--------------------3--3--|
--5--5--5--5--5--5--5--5--|--5--5--5--5--5--5--------|
--------------------------|--------------------------|


                                                      
--------------------------|--------------------------|
--------------------------|--------------------------|
--------------------------|--------------------3--3--|
--3--3--3--3--3--3--3--3--|--3--3--3--3--3--3--------|


                                                      
--------------------------|--------------------------|
--------------------------|--------------------3--3--|
--5--5--5--5--5--5--5--5--|--5--5--5--5--5--5--------|
--------------------------|--------------------------|


                                                      
--------------------------|--------------------------|
--------------------------|--------------------------|
--------------------------|--------------------3--3--|
--3--3--3--3--3--3--3--3--|--3--3--3--3--3--3--------|


                                                                           
--------------------------|--------------------------|--------------------|
--------------------------|--------------------3--3--|--------------------|
--5--5--5--5--5--5--5--5--|--5--5--5--5--5--5--------|-----------1--------|
--------------------------|--------------------------|--3-----------------|


                                                                 
---------------------|--------------------|---------------------|
-----------1----3----|--------------------|-----------1----3----|
--3------------------|-----------1--------|--3------------------|
---------------------|--3-----------------|---------------------|


                                                      
--------------------------|--------------------------|
--------------1--1--1--1--|--3--3--3--3--6--6--8--8--|
--3--3--3--3--------------|--------------------------|
--------------------------|--------------------------|


                                                      
--------------------------|--------------------------|
--------------1--1--1--1--|--3--3--3--3--6--6--5--5--|
--3--3--3--3--------------|--------------------------|
--------------------------|--------------------------|


                                                      
--------------------------|--------------------------|
--------------------------|--------------1--1--3--3--|
--------------1--1--1--1--|--3--3--3--3--------------|
--3--3--3--3--------------|--------------------------|


                                                      
--------------------------|--------------------------|
--------------------------|--------------1--1--0--0--|
--------------1--1--1--1--|--3--3--3--3--------------|
--3--3--3--3--------------|--------------------------|


                                                      
--------------------------|--------------------------|
--------------------------|--------------1--1--3--3--|
--------------1--1--1--1--|--3--3--3--3--------------|
--3--3--3--3--------------|--------------------------|


                                                      
--------------------------|--------------------------|
--------------------------|--------------1--1--0--0--|
--------------1--1--1--1--|--3--3--3--3--------------|
--3--3--3--3--------------|--------------------------|


                                                      
--------------------------|--------------------------|
--------------------------|--------------1--1--3--3--|
--------------1--1--1--1--|--3--3--3--3--------------|
--3--3--3--3--------------|--------------------------|


                                                      
--------------------------|--------------------------|
--------------------------|--------------1--1--0--0--|
--------------1--1--1--1--|--3--3--3--3--------------|
--3--3--3--3--------------|--------------------------|


                                                      
--------------------------|--------------------------|
--------------------------|--------------1--1--3--3--|
--------------1--1--1--1--|--3--3--3--3--------------|
--3--3--3--3--------------|--------------------------|


                                                      
--------------------------|--------------------------|
--------------------------|--------------1--1--0--0--|
--------------1--1--1--1--|--3--3--3--3--------------|
--3--3--3--3--------------|--------------------------|


                                                       
---------------------------|--------------------------|
---------------------------|--------------------------|
--3------------------------|--------------------------|
---------------------------|--3--3--3--3--3--3--3--3--|


                                                      
--------------------------|--------------------------|
--------------------------|--------------------------|
--------------------3--3--|--5--5--5--5--5--5--5--5--|
--3--3--3--3--3--3--------|--------------------------|


                                                      
--------------------------|--------------------------|
--------------------3--3--|--------------------------|
--5--5--5--5--5--5--------|--------------------------|
--------------------------|--3--3--3--3--3--3--3--3--|

[ Tab from: http://www.guitartabs.cc/tabs/h/hammerfall/hammerfall_btab_ver_2.html ]
                                                      
--------------------------|--------------------------|
--------------------------|--------------------------|
--------------------3--3--|--5--5--5--5--5--5--5--5--|
--3--3--3--3--3--3--------|--------------------------|


                                                                                
--------------------------|--------------------------|-------------------------|
--------------------3--3--|--------------------------|-------------------------|
--5--5--5--5--5--5--------|--0--0--0--0--0--0--0--0--|--0--0--0--0--0----------|
--------------------------|--------------------------|-----------------3----3--|


                                                                                
--------------------------|-------------------------|--------------------------|
--------------------------|-------------------------|--------------------------|
--0--0--0--0--0--0--0--0--|--0--0--0--0--0----------|--------------------------|
--------------------------|-----------------1----1--|--3--3--3--3--3--3--3--3--|


                                                                              
-------------------------|--------------------------|------------------------|
-------------------------|--------------------------|--3--------5----0----0--|
-------------------------|--0--0--0--0--0--0--0--0--|-----0--0---------------|
--3--3--3--3--3--1----1--|--------------------------|------------------------|


                                                                                
--------------------------|-------------------------|--------------------------|
--------------------------|-------------------------|--------------------------|
--0--0--0--0--0--0--0--0--|--0--0--0--0--0----------|--0--0--0--0--0--0--0--0--|
--------------------------|-----------------3----3--|--------------------------|


                                                                               
-------------------------|--------------------------|-------------------------|
-------------------------|--------------------------|-------------------------|
--0--0--0--0--0----------|--------------------------|-------------------------|
-----------------1----1--|--3--3--3--3--3--3--3--3--|--3--3--3--3--3--1----1--|


                                                                               
--------------------------|------------------------|--------------------------|
--------------------------|--3--------5----0----0--|--------------------------|
--0--0--0--0--0--0--0--0--|-----0--0---------------|--------------------------|
--------------------------|------------------------|--0--0--0--0--0--0--0--0--|


                                                      
--------------------------|--------------------------|
--------------------------|--------------------------|
--2--2--2--2--2--2--2--2--|--3--3--3--3--3--3--3--3--|
--------------------------|--------------------------|


                                                      
--------------------------|--------------------------|
--------------------------|--------------------------|
--------------------------|--------------------------|
--3--3--3--3--2--2--2--2--|--0--0--0--0--0--0--0--0--|


                                                      
--------------------------|--------------------------|
--------------------------|--------------------------|
--2--2--2--2--2--2--2--2--|--3--3--3--3--3--3--3--3--|
--------------------------|--------------------------|


                                                      
--------------------------|--------------------------|
--------------------------|--------------------------|
--------------------------|--------------------------|
--3--3--3--3--2--2--2--2--|--3--3--3--3--3--3--3--3--|


                                                      
--------------------------|--------------------------|
--------------------------|--------------------------|
--------------------3--3--|--5--5--5--5--5--5--5--5--|
--3--3--3--3--3--3--------|--------------------------|


                                                      
--------------------------|--------------------------|
--------------------3--3--|--------------------------|
--5--5--5--5--5--5--------|--------------------------|
--------------------------|--3--3--3--3--3--3--3--3--|


                                                      
--------------------------|--------------------------|
--------------------------|--------------------------|
--------------------3--3--|--5--5--5--5--5--5--5--5--|
--3--3--3--3--3--3--------|--------------------------|


                                                      
--------------------------|--------------------------|
--------------------3--3--|--------------------------|
--5--5--5--5--5--5--------|--------------------------|
--------------------------|--3--3--3--3--3--3--3--3--|


                                                      
--------------------------|--------------------------|
--------------------------|--------------------------|
--------------------3--3--|--5--5--5--5--5--5--5--5--|
--3--3--3--3--3--3--------|--------------------------|


                                                      
--------------------------|--------------------------|
--------------------3--3--|--------------------------|
--5--5--5--5--5--5--------|--------------------------|
--------------------------|--3--3--3--3--3--3--3--3--|


                                                      
--------------------------|--------------------------|
--------------------------|--------------------------|
--------------------3--3--|--5--5--5--5--5--5--5--5--|
--3--3--3--3--3--3--------|--------------------------|


                                                                  
--------------------------|-------------------|------------------|
--------------------3--3--|-------------------|------------------|
--5--5--5--5--5--5--------|-------------------|------------------|
--------------------------|--0----------------|------------------|


                                                                              
------------------|------------------|-------------------|-------------------|
------------------|------------------|-------------------|-------------------|
------------------|------------------|--7----------------|--3----------------|
------------------|------------------|-------------------|-------------------|


                                                              
-------------------|---------------------|-------------------|
-------------------|---------5------4----|-------------------|
--5----------------|--7------------------|--7----------------|
-------------------|---------------------|-------------------|


                                                             
-------------------|-------------------|--------------------|
-------------------|-------------------|--------------------|
--3----------------|--5----------------|-----------2--------|
-------------------|-------------------|--3-----------------|


                                                            
-------------------|-------------------|-------------------|
-------------------|-------------------|-------------------|
--7----------------|--3----------------|--5----------------|
-------------------|-------------------|-------------------|


                                                              
---------------------|-------------------|-------------------|
---------5------4----|-------------------|-------------------|
--7------------------|--7----------------|--3----------------|
---------------------|-------------------|-------------------|


                                                             
-------------------|--------------------|-------------------|
-------------------|--------------------|-------------------|
--5----------------|-----------2--------|--7----------------|
-------------------|--3-----------------|-------------------|


                                                              
-------------------|-------------------|---------------------|
-------------------|-------------------|---------5------4----|
--3----------------|--5----------------|--7------------------|
-------------------|-------------------|---------------------|


                                                            
-------------------|-------------------|-------------------|
-------------------|-------------------|-------------------|
--7----------------|--3----------------|--5----------------|
-------------------|-------------------|-------------------|


                                                             
--------------------|-------------------|-------------------|
--------------------|-------------------|-------------------|
-----------2--------|--7----------------|--3----------------|
--3-----------------|-------------------|-------------------|


                                                              
-------------------|---------------------|-------------------|
-------------------|---------5------4----|-------------------|
--5----------------|--7------------------|--7----------------|
-------------------|---------------------|-------------------|


                                                                   
-------------------|-------------------|--------------------------|
-------------------|-------------------|--------------------------|
--3----------------|--5----------------|--------------------------|
-------------------|-------------------|--0--0--0--0--0--0--0--0--|


                                                      
--------------------------|--------------------------|
--------------------------|--------------------------|
--------------------------|--------------------------|
--0--0--0--0--0--0--0--0--|--0--0--0--0--0--0--0--0--|


                                                      
--------------------------|--------------------------|
--------------------------|--------------------------|
--------------------------|--------------------------|
--0--0--0--0--0--0--0--0--|--0--0--0--0--0--0--0--0--|


                                                      
--------------------------|--------------------------|
--------------------------|--------------------------|
--------------------------|--------------------------|
--0--0--0--0--0--0--0--0--|--0--0--0--0--0--0--0--0--|


                                                 
--------------------------|--------------------||
--------------------------|--------------------||
--------------------------|--------------------||
--0--0--0--0--0--0--0--0--|--0--0--------------||
Comments