Hammerfall - Fallen One Chords & Tabs

 

Hammerfall Chords & Tabs

Version: 1 Type: Tab 0 ratings
1 star 2 stars 3 stars 4 stars 5 stars
comments

Fallen One Tab

guitar joins at ( 1:55 )
         ......          ............                          ...     ...
g----------------5----5----------------9----9--9--7--5--7---5-------5-------9-------|
d----2---222222--5----5--222222222222--9----9--9--7--5--7---5--222--5--222--9-------|
a----2---222222--3----3--222222222222--7----7--7--5--3--5---3--222--3--222--7-------|
e----0---000000----------000000000000--0----0------------------000-----000----------|
                   ...     ...
g---------------9-------9-------9--7--5--7--------------------5-------5---7---------|
d---------------9--222--9--222--9--7--5--7---SOLORhytm is : --5---2---5---7--2x-----|
a--0-2-3-5-7-9--7--222--7--222--7--5--3--5--------------------3---2---3---5---------|
e---------------0--000--0--000------------------------------------0-----------------|
[ Tab from: http://www.guitartabs.cc/tabs/h/hammerfall/fallen_one_tab.html ]
e------------------------------------------------------------------------10---------|
h----------------12^(13)v-10-12----------------------------------12--13------12-----|
g----12^(14)-12------------------11^(12)v~~~---12^(14)--12-11-9---------------------|
d-----------------------------------------------------------------------------------|
a-----------------------------------------------------------------------------------|
e-----------------------------------------------------------------------------------|

e-------------------------------------------12-14--14^(15)v--12---------17-------12-|
h------------------------12h13h15--12h13h15---------------------15^(17)----v---12---|
g----11h12h14--11h12h14-------------------------------------------------------------|
d-----------------------------------------------------------------------------------|
a-----------------------------------------------------------------------------------|
e-----------------------------------------------------------------------------------|

e----14--14^(15)v--14^(15)v--12----19p15--15--19p15---------------------14-17~~~~/0-|
h---------------------------------------17--17-----17-----------------15------------|
g----------------------------------------------------16~~----14^~~--14--------------|
d-----------------------------------------------------------------------------------|
a-----------------------------------------------------------------------------------|
e-----------------------------------------------------------------------------------|
Comments