Hammerfall - Destined For Glory Chords & Tabs

 

Destined For Glory Chords & Tabs

Hammerfall Chords & Tabs

Version: 1 Type: Tab 0 ratings
1 star 2 stars 3 stars 4 stars 5 stars
comments

Destined For Glory Tab

                                                  Destined for glory                                                    


                                                                                             Oscar Dronjak + Joacim Cans
Rhythm guitar
TABed by Martin Kahnberg (aka Owain ap Nghân) (kahnberg@freemail.hammerfall.net)



Intro (Guitar arrangement for keyboard)                                                                                       
D#||-------------------|-------------------|-------------------|-------------------|-------------------|
A#||-------------------|-------------------|-------------------|-------------------|-------------------|
F#||-------------------|-------------------|-------------------|-------------------|-------------------|
C#||-------------------|-------------------|-------------------|-------------------|-------------------|
G#||--2----------------|--3----------------|--0----------------|--2----------------|--2----------------|
D#||--0----------------|--0----------------|--0----------------|--2----------------|--0----------------|


                                                            (w/dist)                                                      
-------------------|-------------------|-------------------|-----------------------------|-----------------------------|
-------------------|-------------------|-------------------|-----------------------------|-----------------------------|
-------------------|-------------------|-------------------|------------4----------------|--5-------------------5------|
-------------------|-------------------|-------------------|--2---------4---------2------|--5---------7---------5------|
--3----------------|--5----------------|--7----------------|--2---------2---------2------|--3--3-3-3--3--3-3-3--3--3-3-|
--0----------------|--5----------------|--0----------------|--0--0-0-0-----0-0-0--0--0-0-|-----------------------------|


                                                                                                                        
-----------------------------|-----------------------------|-----------------------------|-----------------------------|
-----------------------------|-----------------------------|-----------------------------|-----------------------------|
--2---------2---------2------|--4--------------------------|------------4----------------|--5-------------------5------|
--2---------4---------5------|--4---------2---------1------|--2---------4---------2------|--5---------7---------5------|
--0--0-0-0--0--0-0-0--0--0-0-|--2--2-2-2--2--2-2-2--2--2-2-|--2---------2---------2------|--3--3-3-3--3--3-3-3--3--3-3-|
-----------------------------|-----------------------------|--0--0-0-0-----0-0-0--0--0-0-|-----------------------------|


                                                            Riff 1                                                     
-----------------------------|-----------------------------|-----------------------------|----------------------------|
--3---------3---------3------|--5---------5---------5------|--5---------5---------5------|--5---------5---------------|
--2---------4---------5------|--4---------4---------4------|--4---------4---------4------|--4---------4---------------|
--0--0-0-0--0--0-0-0--0--0-0-|--2---------2---------2------|--2---------2---------2------|--2---------2---------4--5--|
-----------------------------|--2--2-2-2--2--2-2-2--2--2-2-|--2---------2---------2------|--2---------2---------4--5--|
-----------------------------|--0--0-0-0--0--0-0-0--0--0-0-|--0--0-0-0--0--0-0-0--0--0-0-|--0--0-0-0--0--0-0-0--2--3--|


                                                  Verse 1                                                    
----------------------------|--------------------|-----------------------------|----------------------------|
--5---------5---------5-----|--------------------|-----------------------------|----------------------------|
--4---------4---------4-----|-----------7--------|-----------------------------|----------------------------|
--2---------2---------2--4--|--5--------7--------|--2---------2---------2------|--2---------2---------4--5--|
--2---------2---------2--4--|--5--------5--------|--2---------2---------2------|--2---------2---------4--5--|
--0--0-0-0--0--0-0-0--0--2--|--3-----------------|--0--0-0-0--0--0-0-0--0--0-0-|--0--0-0-0--0--0-0-0--2--3--|


                                                                                                                  
-----------------------------|------------------------|-----------------------------|----------------------------|
-----------------------------|------------------------|-----------------------------|----------------------------|
-----------------------------|------------------------|-----------------------------|----------------------------|
--7---------7---------9--10--|--9---------7------5----|--2---------2---------2------|--2---------2---------4--5--|
--7---------7---------9--10--|--9---------7------5----|--2---------2---------2------|--2---------2---------4--5--|
--5--5-5-5--5--5-5-5--7--8---|--7--7-7-7--5------3----|--0--0-0-0--0--0-0-0--0--0-0-|--0--0-0-0--0--0-0-0--2--3--|


                                                                                                                   
-----------------------------|-------------------------|-----------------------------|----------------------------|
-----------------------------|-------------------------|-----------------------------|----------------------------|
-----------------------------|--------------------7----|-----------------------------|----------------------------|
--7---------7---------9--10--|--9---------10------7----|--2---------2---------2------|--2---------2---------4--5--|
--7---------7---------9--10--|--9---------10------5----|--2---------2---------2------|--2---------2---------4--5--|
--5--5-5-5--5--5-5-5--7--8---|--7--7-7-7--8------------|--0--0-0-0--0--0-0-0--0--0-0-|--0--0-0-0--0--0-0-0--2--3--|


                                                                                                                  
-----------------------------|------------------------|-----------------------------|----------------------------|
-----------------------------|------------------------|-----------------------------|----------------------------|
-----------------------------|------------------------|-----------------------------|----------------------------|
--7---------7---------9--10--|--9---------7------5----|--2---------2---------2------|--2---------2---------4--5--|
--7---------7---------9--10--|--9---------7------5----|--2---------2---------2------|--2---------2---------4--5--|
--5--5-5-5--5--5-5-5--7--8---|--7--7-7-7--5------3----|--0--0-0-0--0--0-0-0--0--0-0-|--0--0-0-0--0--0-0-0--2--3--|


                                                        Bridge                                         
-----------------------------|-------------------------|-------------------|--------------------------|
-----------------------------|-------------------------|-------------------|--------------------------|
-----------------------------|--------------------7----|--0----------------|--0--------0--------0-----|
--7---------7---------9--10--|--9---------10------7----|--2----------------|--2--------2--------2-----|
--7---------7---------9--10--|--9---------10------5----|--3----------------|--3--3--3--3--3--3--3--3--|
--5--5-5-5--5--5-5-5--7--8---|--7--7-7-7--8------------|-------------------|--------------------------|


                                                                                                           
-----------------------------|-----------------------------|-------------------|--------------------------|
-----------------------------|-----------------------------|-------------------|--------------------------|
-----------------------------|--4---------2---------0------|-------------------|--------------------------|
--2---------4---------2------|--2--2-2-2--2--2-2-2--2--2-2-|--4----------------|--4--------4--------4-----|
--2---------2---------2------|--2---------2---------2------|--5----------------|--5--5--5--5--5--5--5--5--|
--0--0-0-0--0--0-0-0--0--0-0-|--0--------------------------|-------------------|--------------------------|


                                                 Chorus                                                      
--------------------------|---------------------|-------------------|-------------------|-------------------|
--------------------------|---------------------|-------------------|-------------------|-------------------|
--------------------------|---------------------|-------------------|--5----------------|-------------------|
--9--------9--------9-----|--9------7------5----|--2----------------|--5----------------|--7----------------|
--9--------9--------9-----|--9------7------5----|--2----------------|--3----------------|--7----------------|
--7--7--7--7--7--7--7--7--|--7------5------3----|--0----------------|-------------------|--5----------------|


                                                                                                      
---------------------|-------------------|-------------------|-------------------|-------------------|
---------------------|-------------------|-------------------|-------------------|-------------------|
---------------------|-------------------|--5----------------|--7----------------|--9----------------|
--9------7------5----|--2----------------|--5----------------|--7----------------|--9----------------|
--9------7------5----|--2----------------|--3----------------|--5----------------|--7----------------|
--7------5------3----|--0----------------|-------------------|-------------------|--0----------------|


Riff 1                                                                                                       
-----------------------------|----------------------------|----------------------------|--------------------|
--5---------5---------5------|--5---------5---------------|--5---------5---------5-----|--------------------|
--4---------4---------4------|--4---------4---------------|--4---------4---------4-----|-----------7--------|
--2---------2---------2------|--2---------2---------4--5--|--2---------2---------2--4--|--5--------7--------|
--2---------2---------2------|--2---------2---------4--5--|--2---------2---------2--4--|--5--------5--------|
--0--0-0-0--0--0-0-0--0--0-0-|--0--0-0-0--0--0-0-0--2--3--|--0--0-0-0--0--0-0-0--0--2--|--3-----------------|


Verse 2                                                                                                           
-----------------------------|----------------------------|-----------------------------|------------------------|
-----------------------------|----------------------------|-----------------------------|------------------------|
-----------------------------|----------------------------|-----------------------------|------------------------|
--2---------2---------2------|--2---------2---------4--5--|--7---------7---------9--10--|--9---------7------5----|
--2---------2---------2------|--2---------2---------4--5--|--7---------7---------9--10--|--9---------7------5----|
--0--0-0-0--0--0-0-0--0--0-0-|--0--0-0-0--0--0-0-0--2--3--|--5--5-5-5--5--5-5-5--7--8---|--7--7-7-7--5------3----|


                                                                                                                   
-----------------------------|----------------------------|-----------------------------|-------------------------|
-----------------------------|----------------------------|-----------------------------|-------------------------|
-----------------------------|----------------------------|-----------------------------|--------------------7----|
--2---------2---------2------|--2---------2---------4--5--|--7---------7---------9--10--|--9---------10------7----|
--2---------2---------2------|--2---------2---------4--5--|--7---------7---------9--10--|--9---------10------5----|
--0--0-0-0--0--0-0-0--0--0-0-|--0--0-0-0--0--0-0-0--2--3--|--5--5-5-5--5--5-5-5--7--8---|--7--7-7-7--8------------|


Bridge                                                                                                     
-------------------|--------------------------|-----------------------------|-----------------------------|
-------------------|--------------------------|-----------------------------|-----------------------------|
--0----------------|--0--------0--------0-----|-----------------------------|--4---------2---------0------|
--2----------------|--2--------2--------2-----|--2---------4---------2------|--2--2-2-2--2--2-2-2--2--2-2-|
--3----------------|--3--3--3--3--3--3--3--3--|--2---------2---------2------|--2---------2---------2------|
-------------------|--------------------------|--0--0-0-0--0--0-0-0--0--0-0-|--0--------------------------|


                                                                                                Chorus              
-------------------|--------------------------|--------------------------|---------------------|-------------------|
-------------------|--------------------------|--------------------------|---------------------|-------------------|
-------------------|--------------------------|--------------------------|---------------------|-------------------|
--4----------------|--4--------4--------4-----|--9--------9--------9-----|--9------7------5----|--2----------------|
--5----------------|--5--5--5--5--5--5--5--5--|--9--------9--------9-----|--9------7------5----|--2----------------|
-------------------|--------------------------|--7--7--7--7--7--7--7--7--|--7------5------3----|--0----------------|


                                                                                                        
-------------------|-------------------|-----------------------|-------------------|-------------------|
-------------------|-------------------|-----------------------|-------------------|-------------------|
--5----------------|-------------------|-----------------------|-------------------|--5----------------|
--5----------------|--7----------------|--9--------7------5----|--2----------------|--5----------------|
--3----------------|--7----------------|--9--------7------5----|--2----------------|--3----------------|
-------------------|--5----------------|--7--7--7--5------3----|--0----------------|-------------------|


                                                                                                    
-------------------|-------------------|-----------------------------|-----------------------------|
-------------------|-------------------|-----------------------------|-----------------------------|
--7----------------|--9----------------|------------4----------------|--5-------------------5------|
--7----------------|--9----------------|--2---------4---------2------|--5---------7---------5------|
--5----------------|--7----------------|--2---------2---------2------|--3--3-3-3--3--3-3-3--3--3-3-|
-------------------|--0----------------|--0--0-0-0-----0-0-0--0--0-0-|-----------------------------|


                                                                                                                        
-----------------------------|-----------------------------|-----------------------------|-----------------------------|
-----------------------------|-----------------------------|-----------------------------|-----------------------------|
--2---------2---------2------|--4--------------------------|------------4----------------|--5-------------------5------|
--2---------4---------5------|--4---------2---------1------|--2---------4---------2------|--5---------7---------5------|
--0--0-0-0--0--0-0-0--0--0-0-|--2--2-2-2--2--2-2-2--2--2-2-|--2---------2---------2------|--3--3-3-3--3--3-3-3--3--3-3-|
-----------------------------|-----------------------------|--0--0-0-0-----0-0-0--0--0-0-|-----------------------------|

[ Tab from: http://www.guitartabs.cc/tabs/h/hammerfall/destined_for_glory_tab.html ]
                              Riff 2 (stick)                                                                         
-----------------------------|-------------------|------------------|-------------------|-------------------|
--3---------3---------3------|--5----------------|------------------|-------------------|-------------------|
--2---------4---------5------|--4----------------|------------------|--7----------------|----------------7--|
--0--0-0-0--0--0-0-0--0--0-0-|--2----------------|------------------|--7----------------|----------------7--|
-----------------------------|--2----------------|------------------|--5----------------|----------------5--|
-----------------------------|--0----------------|------------------|-------------------|-------------------|


                                                                                             
-------------------|------------------|--------------------------|--------------------------|
-------------------|------------------|--------------------------|--------------------------|
--9----------------|------------------|--5--------5--------5-----|--7--------7--------7-----|
--9----------------|------------------|--5--------5--------5-----|--7--------7--------7-----|
--7----------------|------------------|--3--3--3--3--3--3--3--3--|--5--5--5--5--5--5--5--5--|
--0----------------|------------------|--------------------------|--------------------------|


                                                                                                          
------------------------------|---------------------|------------------------------|---------------------|
------------------------------|---------------------|------------------------------|---------------------|
--9------9------9------9------|--9------9------9----|--7------7------7------7------|--7------7------7----|
--9------9------9------9------|--9------7------9----|--7------7------7------7------|--7------5------7----|
--7--7-7-7--7-7-7--7-7-7--7-7-|--7------7------7----|--5--5-5-5--5-5-5--5-5-5--5-5-|--5------5------5----|
------------------------------|---------------------|------------------------------|---------------------|


                                                                                                                   
------------------------------|---------------------|------------------------------|------------------------------|
------------------------------|---------------------|------------------------------|------------------------------|
--9------9------9------9------|--9------9------9----|--5------5------5------5------|--7------7------7------7------|
--9------9------9------9------|--9------7------9----|--5------5------5------5------|--7------7------7------7------|
--7--7-7-7--7-7-7--7-7-7--7-7-|--7------7------7----|--3--3-3-3--3-3-3--3-3-3--3-3-|--5--5-5-5--5-5-5--5-5-5--5-5-|
------------------------------|---------------------|------------------------------|------------------------------|


Solo                                                                                                             
------------------------------|------------------------------|------------------------------|---------------------|
------------------------------|------------------------------|------------------------------|---------------------|
--9------9------9------9------|--7------7------7------7------|--5------5------5------5------|--7------5------4----|
--9------9------9------9------|--7------7------7------7------|--5------5------5------5------|--7------5------4----|
--7--7-7-7--7-7-7--7-7-7--7-7-|--5--5-5-5--5-5-5--5-5-5--5-5-|--3--3-3-3--3-3-3--3-3-3--3-3-|--5------3------2----|
------------------------------|------------------------------|------------------------------|---------------------|


                                                                                                                   
------------------------------|------------------------------|------------------------------|---------------------|
------------------------------|------------------------------|------------------------------|---------------------|
------------------------------|------------------------------|--5------5------5------5------|--7------5------7----|
--7------7------7------7------|--5------5------5------5------|--5------5------5------5------|--7------5------7----|
--7------7------7------7------|--5------5------5------5------|--3--3-3-3--3-3-3--3-3-3--3-3-|--5------3------5----|
--5--5-5-5--5-5-5--5-5-5--5-5-|--3--3-3-3--3-3-3--3-3-3--3-3-|------------------------------|---------------------|


Riff 2 (stick)                                                                                                       
----------------------------|----------------------------|----------------------------|----------------------------|
----------------------------|----------------------------|----------------------------|----------------------------|
----------------------------|--9---------7---------------|----------------------------|--7---------5---------------|
--9---------9---------9-----|--9---------7---------9-----|--7---------7---------7-----|--7---------5---------7-----|
--7--7-7-7--7--7-7-7--7--7--|--7--7-7-7--7--7-7-7--7--7--|--5--5-5-5--5--5-5-5--5--5--|--5--5-5-5--5--5-5-5--5--5--|
----------------------------|----------------------------|----------------------------|----------------------------|


                                                                                                                    
----------------------------|----------------------------|----------------------------|----------------------------|
----------------------------|----------------------------|----------------------------|----------------------------|
----------------------------|--9---------7---------------|--5---------5---------5-----|--7---------7---------7-----|
--9---------9---------9-----|--9---------7---------9-----|--5---------5---------5-----|--7---------7---------7-----|
--7--7-7-7--7--7-7-7--7--7--|--7--7-7-7--7--7-7-7--7--7--|--3--3-3-3--3--3-3-3--3--3--|--5--5-5-5--5--5-5-5--5--5--|
----------------------------|----------------------------|----------------------------|----------------------------|


                                                                                                                 
----------------------------------|------------------------|------------------------------|---------------------|
----------------------------------|------------------------|------------------------------|---------------------|
--11------11------11------11------|--11------11------11----|--9------9------9------9------|--9------9------9----|
--11------11------11------11------|--11------9-------11----|--9------9------9------9------|--9------7------9----|
--9---9-9-9---9-9-9---9-9-9---9-9-|--9-------9-------9-----|--7--7-7-7--7-7-7--7-7-7--7-7-|--7------7------7----|
----------------------------------|------------------------|------------------------------|---------------------|


                                                                                           
----------------------------------|------------------------|------------------------------|
----------------------------------|------------------------|------------------------------|
--11------11------11------11------|--11------11------11----|--7------7------7------7------|
--11------11------11------11------|--11------9-------11----|--7------7------7------7------|
--9---9-9-9---9-9-9---9-9-9---9-9-|--9-------9-------9-----|--5--5-5-5--5-5-5--5-5-5--5-5-|
----------------------------------|------------------------|------------------------------|


                                                                                           
------------------------------|----------------------------------|------------------------|
------------------------------|----------------------------------|------------------------|
--9------9------9------9------|--11------11------11------11------|--11------11------11----|
--9------9------9------9------|--11------11------11------11------|--11------9-------11----|
--7--7-7-7--7-7-7--7-7-7--7-7-|--9---9-9-9---9-9-9---9-9-9---9-9-|--9-------9-------9-----|
------------------------------|----------------------------------|------------------------|


                                                                                                                 
------------------------------|---------------------|----------------------------------|------------------------|
------------------------------|---------------------|----------------------------------|------------------------|
--9------9------9------9------|--9------9------9----|--11------11------11------11------|--11------11------11----|
--9------9------9------9------|--9------7------9----|--11------11------11------11------|--11------9-------11----|
--7--7-7-7--7-7-7--7-7-7--7-7-|--7------7------7----|--9---9-9-9---9-9-9---9-9-9---9-9-|--9-------9-------9-----|
------------------------------|---------------------|----------------------------------|------------------------|


                                                                                                                        
------------------------------|------------------------------|----------------------------|----------------------------|
------------------------------|------------------------------|----------------------------|----------------------------|
--7------7------7------7------|--9------9------9------9------|--0---------0---------5-----|----------------------7-----|
--7------7------7------7------|--9------9------9------9------|--2---------2---------5-----|--4---------4---------7-----|
--5--5-5-5--5-5-5--5-5-5--5-5-|--7--7-7-7--7-7-7--7-7-7--7-7-|--3--3-3-3--3--3-3-3--3--3--|--5--5-5-5--5--5-5-5--5--5--|
------------------------------|------------------------------|----------------------------|----------------------------|


                                                     Chorus                                                      
------------------------------|---------------------|-------------------|-------------------|-------------------|
------------------------------|---------------------|-------------------|-------------------|-------------------|
--4------4------4------4------|---------------------|--9----------------|--5----------------|-------------------|
--4------4------4------4------|--1------2------4----|--9----------------|--5----------------|--7----------------|
--2--2-2-2--2-2-2--2-2-2--2-2-|--2------3------5----|--7----------------|--3----------------|--7----------------|
------------------------------|---------------------|--0----------------|-------------------|--5----------------|


                                                                                                    
-------------------|-------------------|-------------------|-------------------|-------------------|
-------------------|-------------------|-------------------|-------------------|-------------------|
-------------------|--9----------------|--5----------------|--7----------------|--9----------------|
--9----------------|--9----------------|--5----------------|--7----------------|--9----------------|
--9----------------|--7----------------|--3----------------|--5----------------|--7----------------|
--7----------------|--0----------------|-------------------|-------------------|--0----------------|


                                                                                                                        
-----------------------------|-----------------------------|-----------------------------|-----------------------------|
-----------------------------|-----------------------------|-----------------------------|-----------------------------|
-----------------------------|--7-------------------7------|--4---------4---------4------|--6--------------------------|
--4---------6---------4------|--7---------9---------7------|--4---------6---------7------|--6---------4---------3------|
--4---------4---------4------|--5--5-5-5--5--5-5-5--5--5-5-|--2--2-2-2--2--2-2-2--2--2-2-|--4--4-4-4--4--4-4-4--4--4-4-|
--2--2-2-2--2--2-2-2--2--2-2-|-----------------------------|-----------------------------|-----------------------------|


                                                                                                                 
-----------------------------|-----------------------------|-------------------------------|--------------------|
-----------------------------|-----------------------------|-------------------------------|--------------------|
-----------------------------|--7-------------------7------|--9----------------------------|--11----------------|
--4---------6---------4------|--7---------9---------7------|--9---------11---------12------|--11----------------|
--4---------4---------4------|--5--5-5-5--5--5-5-5--5--5-5-|--7--7-7-7--7---7-7-7--7---7-7-|--9-----------------|
--2--2-2-2--2--2-2-2--2--2-2-|-----------------------------|-------------------------------|--------------------|


                                                                                                        
-------------------|-------------------|-------------------|-------------------|-----------------------|
-------------------|-------------------|-------------------|-------------------|-----------------------|
--7----------------|-------------------|--5----------------|-------------------|-----------------------|
--7----------------|--2----------------|--5----------------|--7----------------|--9--9--9--7------5----|
--5----------------|--2----------------|--3----------------|--7----------------|--9--9--9--7------5----|
-------------------|--0----------------|-------------------|--5----------------|--7--7--7--5------3----|


                                                                                                              
-------------------|-------------------|-------------------|-------------------|-----------------------------|
-------------------|-------------------|-------------------|-------------------|-----------------------------|
-------------------|--5----------------|--7----------------|--9----------------|------------4----------------|
--2----------------|--5----------------|--7----------------|--9----------------|--2---------4---------2------|
--2----------------|--3----------------|--5----------------|--7----------------|--2---------2---------2------|
--0----------------|-------------------|-------------------|--0----------------|--0--0-0-0-----0-0-0--0--0-0-|


                                                                                                                        
-----------------------------|-----------------------------|-----------------------------|-----------------------------|
-----------------------------|-----------------------------|-----------------------------|-----------------------------|
--5-------------------5------|--2---------2---------2------|--4--------------------------|------------4----------------|
--5---------7---------5------|--2---------4---------5------|--4---------2---------1------|--2---------4---------2------|
--3--3-3-3--3--3-3-3--3--3-3-|--0--0-0-0--0--0-0-0--0--0-0-|--2--2-2-2--2--2-2-2--2--2-2-|--2---------2---------2------|
-----------------------------|-----------------------------|-----------------------------|--0--0-0-0-----0-0-0--0--0-0-|


                                                                                Outro                        
-----------------------------|-----------------------------|-------------------|-----------------------------|
-----------------------------|--3---------3---------3------|--5----------------|--5---------5---------5------|
--5-------------------5------|--2---------4---------5------|--4----------------|--4---------4---------4------|
--5---------7---------5------|--0--0-0-0--0--0-0-0--0--0-0-|--2----------------|--2---------2---------2------|
--3--3-3-3--3--3-3-3--3--3-3-|-----------------------------|--2----------------|--2---------2---------2------|
-----------------------------|-----------------------------|--0----------------|--0--0-0-0--0--0-0-0--0--0-0-|


                                                                                                         
----------------------------|----------------------------|--------------------|-------------------------|
--5---------5---------------|--5---------5---------5-----|--------------------|-------------------------|
--4---------4---------------|--4---------4---------4-----|-----------7--------|-------------------------|
--2---------2---------4--5--|--2---------2---------2--4--|--5--------7--------|--2---------4----2----0--|
--2---------2---------4--5--|--2---------2---------2--4--|--5--------5--------|--2---------2----2----2--|
--0--0-0-0--0--0-0-0--2--3--|--0--0-0-0--0--0-0-0--0--2--|--3-----------------|--0--0-0-0---------------|


                     
-------------------||
-------------------||
-------------------||
--2----------------||
--2----------------||
--0----------------||


Comments