Hammerfall - Destined For Glory Chords & Tabs

 

Destined For Glory Chords & Tabs

Hammerfall Chords & Tabs

Version: 2 Type: Bass Tab 0 ratings
1 star 2 stars 3 stars 4 stars 5 stars
comments

Destined For Glory Bass Tab

Tune Down

F#||-------------------|-------------------|-------------------|
C#||--2----------------|-------------------|-------------------|
G#||-------------------|--3----------------|--0----------------|
D#||-------------------|-------------------|-------------------|


                                                                                
-------------------|-------------------|-------------------|-------------------|
-------------------|--2----------------|-------------------|-------------------|
--2----------------|-------------------|--3----------------|--5----------------|
-------------------|-------------------|-------------------|-------------------|


                                                                                
-------------------|-----------------------------|-----------------------------|
-------------------|-----------------------------|-----------------------------|
--7----------------|-----------------------------|--3--3-3-3--3--3-3-3--3--3-3-|
-------------------|--0--0-0-0--0--0-0-0--0--0-0-|-----------------------------|


                                                            
-----------------------------|-----------------------------|
-----------------------------|-----------------------------|
-----------------------------|-----------------------------|
--5--5-5-5--5--5-5-5--5--5-5-|--7--7-7-7--8--7-7-7--7--7-7-|

[ Tab from: http://www.guitartabs.cc/tabs/h/hammerfall/destined_for_glory_btab_ver_2.html ]
                                                            
-----------------------------|-----------------------------|
-----------------------------|-----------------------------|
-----------------------------|--3--3-3-3--3--3-3-3--3--3-3-|
--0--0-0-0--0--0-0-0--0--0-0-|-----------------------------|


                                                                                
-----------------------------|-------------------|-----------------------------|
-----------------------------|-------------------|-----------------------------|
--5--5-5-5--5--5-5-5--5--5-5-|--7----------------|-----------------------------|
-----------------------------|--0----------------|--0--0-0-0--0--0-0-0--0--0-0-|


                                                                               
----------------------------|----------------------------|--------------------|
----------------------------|----------------------------|--------------------|
----------------------------|----------------------------|-----------5--------|
--0--0-0-0--0--0-0-0--2--3--|--0--0-0-0--0--0-0-0--0--2--|--3-----------------|


                                                           
-----------------------------|----------------------------|
-----------------------------|----------------------------|
-----------------------------|----------------------------|
--0--0-0-0--0--0-0-0--0--0-0-|--0--0-0-0--0--0-0-0--2--3--|


                                                       
----------------------------|------------------------||
----------------------------|------------------------||
--0--0-0-0--0--0-0-0--2--3--|--2--2-2-2--0-----------||
----------------------------|-------------------3----||
Comments