Halo - The Vampyre Song Chords & Tabs

 

The Vampyre Song Chords & Tabs

Halo Chords & Tabs

Version: 1 Type: Tab 0 ratings
1 star 2 stars 3 stars 4 stars 5 stars
comments

The Vampyre Song Tab

i worked this out by watching them at their recent acoustic gig at 
the lousiana. i cant be bothered to type it all out but ill include
all the riffs you need. listen to the song for when to play them.

riff 1 & intro

e-----------------------------------------------------------------
B-----------------------------------------------------------------
G------6-------6-------6-------6-------6-------6------4-------4---
D----6---6---6---6---6---6---6---6---6---6---6---6---4--4---4---4-
A--4-------4-------4-------4-------0-------0-------2------2-------
E-----------------------------------------------------------------

riff 2

e--4-------4-------4-------4-------0-------0-------2------2-------
B--5-------5-------5-------5-------5-------5-------4------4-------
G--6-------6-------6-------6-------6-------6-------4------4-------
D--6-------6-------6-------6-------6-------6-------4------4-------
A--4-------4-------4-------4-------0-------0-------2------2-------
E--4-------4-------4-------4-------0-------0-------2------2-------
[ Tab from: http://www.guitartabs.cc/tabs/h/halo/the_vampyre_song_tab.html ]
for riffs 2 & 3, thrash them a bit. i havent written the rhythm, but 
listen to the song and all will be revealed.

riff 3

e--0-------0-------0-------0-------2-------2-------2-------2-------
B--4-------4-------4-------4-------4-------4-------4-------4-------
G--4-------4-------4-------4-------4-------4-------4-------4-------
D--4-------4-------4-------4-------4-------4-------4-------4-------
A--0-------0-------0-------0-------2-------2-------2-------2-------
E--0-------0-------0-------0-------2-------2-------2-------2------- 

riff 4

e------------------------------------------------------------------
B------------------------------------------------------------------
G------6-------6-------6-------6-------6-------6-------6-------6---
D----6---6---6---6---6---6---6-------6---6---6---6---6---6---6-----
A--4-------4-------4-------0-------4-------4-------4-------0-------
E------------------------------------------------------------------

for this song i recommend using 'A-minor' and 'A' shape barre chords 
for the picking and the strumming. have fun playing! for requests or
suggestions email me at rattatouie_provencal@hotmail.com
Comments